ISO-10303-21;
HEADER;
FILE_DESCRIPTION((''),'2;1');
FILE_NAME('121','2020-12-04T19:36:50',('miqia'),(''),
'CREO PARAMETRIC BY PTC INC, 2019224','CREO PARAMETRIC BY PTC INC, 2019224','');
FILE_SCHEMA(('CONFIG_CONTROL_DESIGN'));
ENDSEC;
DATA;
#1=CARTESIAN_POINT('',(0.E0,0.E0,0.E0));
#2=DIRECTION('',(1.E0,0.E0,0.E0));
#3=DIRECTION('',(0.E0,0.E0,-1.E0));
#4=AXIS2_PLACEMENT_3D('',#1,#2,#3);
#6=CARTESIAN_POINT('',(0.E0,0.E0,0.E0));
#7=DIRECTION('',(1.E0,0.E0,0.E0));
#8=DIRECTION('',(0.E0,0.E0,1.E0));
#9=AXIS2_PLACEMENT_3D('',#6,#7,#8);
#11=CARTESIAN_POINT('',(1.15E1,0.E0,0.E0));
#12=DIRECTION('',(1.E0,0.E0,0.E0));
#13=DIRECTION('',(0.E0,0.E0,-1.E0));
#14=AXIS2_PLACEMENT_3D('',#11,#12,#13);
#16=DIRECTION('',(1.E0,4.316981610638E-11,0.E0));
#17=VECTOR('',#16,1.15E1);
#18=CARTESIAN_POINT('',(0.E0,0.E0,-2.65E1));
#19=LINE('',#18,#17);
#20=CARTESIAN_POINT('',(1.15E1,-2.432315349132E-9,-2.6E1));
#21=DIRECTION('',(0.E0,1.E0,-9.355059088501E-11));
#22=DIRECTION('',(1.E0,0.E0,3.268496584496E-13));
#23=AXIS2_PLACEMENT_3D('',#20,#21,#22);
#25=CARTESIAN_POINT('',(1.2E1,0.E0,0.E0));
#26=DIRECTION('',(1.E0,0.E0,0.E0));
#27=DIRECTION('',(0.E0,0.E0,-1.E0));
#28=AXIS2_PLACEMENT_3D('',#25,#26,#27);
#30=CARTESIAN_POINT('',(1.2E1,0.E0,0.E0));
#31=DIRECTION('',(1.E0,0.E0,0.E0));
#32=DIRECTION('',(0.E0,0.E0,1.E0));
#33=AXIS2_PLACEMENT_3D('',#30,#31,#32);
#35=CARTESIAN_POINT('',(1.2E1,0.E0,0.E0));
#36=DIRECTION('',(1.E0,0.E0,0.E0));
#37=DIRECTION('',(0.E0,0.E0,1.E0));
#38=AXIS2_PLACEMENT_3D('',#35,#36,#37);
#40=CARTESIAN_POINT('',(1.2E1,0.E0,0.E0));
#41=DIRECTION('',(1.E0,0.E0,0.E0));
#42=DIRECTION('',(0.E0,0.E0,-1.E0));
#43=AXIS2_PLACEMENT_3D('',#40,#41,#42);
#45=CARTESIAN_POINT('',(5.45E1,0.E0,-1.E1));
#46=CARTESIAN_POINT('',(5.45E1,4.128224447153E-1,-1.E1));
#47=CARTESIAN_POINT('',(5.456607911348E1,1.213019562099E0,-9.950277129670E0));
#48=CARTESIAN_POINT('',(5.485360006389E1,2.366853653577E0,-9.736628667807E0));
#49=CARTESIAN_POINT('',(5.525450232675E1,3.325036520481E0,-9.445703779586E0));
#50=CARTESIAN_POINT('',(5.570915791479E1,4.113941263039E0,-9.126071245601E0));
#51=CARTESIAN_POINT('',(5.620398174994E1,4.782213360971E0,-8.791753056948E0));
#52=CARTESIAN_POINT('',(5.673439109365E1,5.359582690331E0,-8.450674519614E0));
#53=CARTESIAN_POINT('',(5.731955421950E1,5.877708298846E0,-8.097778954706E0));
#54=CARTESIAN_POINT('',(5.795917198135E1,6.334965535262E0,-7.744021572074E0));
#55=CARTESIAN_POINT('',(5.865598228226E1,6.729122602281E0,-7.402456547378E0));
#56=CARTESIAN_POINT('',(5.938737442432E1,7.045171081890E0,-7.100419191151E0));
#57=CARTESIAN_POINT('',(6.015484393354E1,7.284985780830E0,-6.852630138888E0));
#58=CARTESIAN_POINT('',(6.100354337286E1,7.452327879919E0,-6.668832572568E0));
#59=CARTESIAN_POINT('',(6.165518800224E1,7.5E0,-6.614378277661E0));
#60=CARTESIAN_POINT('',(6.2E1,7.5E0,-6.614378277661E0));
#62=CARTESIAN_POINT('',(6.2E1,7.5E0,-6.614378277661E0));
#63=CARTESIAN_POINT('',(6.234877222439E1,7.5E0,-6.614378277661E0));
#64=CARTESIAN_POINT('',(6.300612599800E1,7.451206636857E0,-6.670110412564E0));
#65=CARTESIAN_POINT('',(6.385547324064E1,7.282312764124E0,-6.855494423932E0));
#66=CARTESIAN_POINT('',(6.461989461927E1,7.042284145419E0,-7.103256221713E0));
#67=CARTESIAN_POINT('',(6.534484381383E1,6.728414050363E0,-7.403006603824E0));
#68=CARTESIAN_POINT('',(6.603545928215E1,6.338099257222E0,-7.741329608909E0));
#69=CARTESIAN_POINT('',(6.667015325335E1,5.885586717199E0,-8.091901373695E0));
#70=CARTESIAN_POINT('',(6.725133823124E1,5.373262167257E0,-8.441822373128E0));
#71=CARTESIAN_POINT('',(6.777991242201E1,4.801430503701E0,-8.781142459315E0));
#72=CARTESIAN_POINT('',(6.827533747618E1,4.137424656675E0,-9.115368043106E0));
#73=CARTESIAN_POINT('',(6.873302497244E1,3.350396955579E0,-9.436765476520E0));
#74=CARTESIAN_POINT('',(6.913896114809E1,2.390064944393E0,-9.731137468432E0));
#75=CARTESIAN_POINT('',(6.943184130610E1,1.229387916113E0,-9.948710694307E0));
#76=CARTESIAN_POINT('',(6.95E1,4.190337964156E-1,-1.E1));
#77=CARTESIAN_POINT('',(6.95E1,0.E0,-1.E1));
#79=DIRECTION('',(1.E0,0.E0,0.E0));
#80=VECTOR('',#79,2.5E0);
#81=CARTESIAN_POINT('',(6.95E1,0.E0,-1.E1));
#82=LINE('',#81,#80);
#83=DIRECTION('',(1.E0,0.E0,0.E0));
#84=VECTOR('',#83,4.25E1);
#85=CARTESIAN_POINT('',(1.2E1,0.E0,-1.E1));
#86=LINE('',#85,#84);
#87=CARTESIAN_POINT('',(6.2E1,0.E0,-2.84E2));
#88=DIRECTION('',(0.E0,0.E0,1.E0));
#89=DIRECTION('',(0.E0,1.E0,0.E0));
#90=AXIS2_PLACEMENT_3D('',#87,#88,#89);
#92=DIRECTION('',(0.E0,0.E0,-1.E0));
#93=VECTOR('',#92,2.773856217223E2);
#94=CARTESIAN_POINT('',(6.2E1,7.5E0,-6.614378277661E0));
#95=LINE('',#94,#93);
#96=CARTESIAN_POINT('',(6.2E1,0.E0,-2.84E2));
#97=DIRECTION('',(0.E0,0.E0,1.E0));
#98=DIRECTION('',(0.E0,-1.E0,0.E0));
#99=AXIS2_PLACEMENT_3D('',#96,#97,#98);
#101=CARTESIAN_POINT('',(6.2E1,0.E0,-2.84E2));
#102=DIRECTION('',(0.E0,0.E0,1.E0));
#103=DIRECTION('',(0.E0,1.E0,0.E0));
#104=AXIS2_PLACEMENT_3D('',#101,#102,#103);
#106=CARTESIAN_POINT('',(6.2E1,0.E0,-2.84E2));
#107=DIRECTION('',(0.E0,0.E0,1.E0));
#108=DIRECTION('',(0.E0,-1.E0,0.E0));
#109=AXIS2_PLACEMENT_3D('',#106,#107,#108);
#111=DIRECTION('',(0.E0,0.E0,-1.E0));
#112=VECTOR('',#111,2.773856217223E2);
#113=CARTESIAN_POINT('',(6.2E1,-7.5E0,-6.614378277661E0));
#114=LINE('',#113,#112);
#115=CARTESIAN_POINT('',(6.2E1,-7.5E0,-6.614378277661E0));
#116=CARTESIAN_POINT('',(6.165344857598E1,-7.5E0,-6.614378277661E0));
#117=CARTESIAN_POINT('',(6.099945570311E1,-7.451822671692E0,-6.669406112702E0));
#118=CARTESIAN_POINT('',(6.015166880013E1,-7.284115221852E0,-6.853557552586E0));
#119=CARTESIAN_POINT('',(5.938622648662E1,-7.044637546139E0,-7.100926268101E0));
#120=CARTESIAN_POINT('',(5.865851322690E1,-6.730186211893E0,-7.401420808938E0));
#121=CARTESIAN_POINT('',(5.796593358889E1,-6.339063133343E0,-7.740568930292E0));
#122=CARTESIAN_POINT('',(5.732965165357E1,-5.885514450392E0,-8.091989564352E0));
#123=CARTESIAN_POINT('',(5.674711767373E1,-5.371848285919E0,-8.442766936300E0));
#124=CARTESIAN_POINT('',(5.621735265880E1,-4.798254445595E0,-8.782932986006E0));
#125=CARTESIAN_POINT('',(5.572119905364E1,-4.132291554163E0,-9.117750496523E0));
#126=CARTESIAN_POINT('',(5.526350696063E1,-3.343536741062E0,-9.439244317501E0));
#127=CARTESIAN_POINT('',(5.485843234422E1,-2.382214871882E0,-9.733058502860E0));
#128=CARTESIAN_POINT('',(5.456731160181E1,-1.223033426769E0,-9.949348678490E0));
#129=CARTESIAN_POINT('',(5.45E1,-4.165161387487E-1,-1.E1));
#130=CARTESIAN_POINT('',(5.45E1,0.E0,-1.E1));
#132=DIRECTION('',(1.E0,0.E0,0.E0));
#133=VECTOR('',#132,6.E1);
#134=CARTESIAN_POINT('',(1.2E1,0.E0,1.E1));
#135=LINE('',#134,#133);
#136=CARTESIAN_POINT('',(6.95E1,0.E0,-1.E1));
#137=CARTESIAN_POINT('',(6.95E1,-4.104227599662E-1,-1.E1));
#138=CARTESIAN_POINT('',(6.943471599070E1,-1.206953021904E0,-9.950875953913E0));
#139=CARTESIAN_POINT('',(6.914887830148E1,-2.359298399E0,-9.738456122884E0));
#140=CARTESIAN_POINT('',(6.874882765169E1,-3.318385214457E0,-9.448086161792E0));
#141=CARTESIAN_POINT('',(6.829417096069E1,-4.108970465480E0,-9.128363968658E0));
#142=CARTESIAN_POINT('',(6.779862987677E1,-4.779162317121E0,-8.793465425855E0));
#143=CARTESIAN_POINT('',(6.726707528736E1,-5.358234918204E0,-8.451572799916E0));
#144=CARTESIAN_POINT('',(6.668060273405E1,-5.877664504173E0,-8.097845747311E0));
#145=CARTESIAN_POINT('',(6.603943727371E1,-6.335928433543E0,-7.743261931672E0));
#146=CARTESIAN_POINT('',(6.534068949121E1,-6.730880730525E0,-7.400883328267E0));
#147=CARTESIAN_POINT('',(6.460653392879E1,-7.047505328134E0,-7.098105957671E0));
#148=CARTESIAN_POINT('',(6.383811371912E1,-7.286749883235E0,-6.850732505092E0));
#149=CARTESIAN_POINT('',(6.299098446864E1,-7.452924448116E0,-6.668150493146E0));
#150=CARTESIAN_POINT('',(6.234263820982E1,-7.5E0,-6.614378277661E0));
#151=CARTESIAN_POINT('',(6.2E1,-7.5E0,-6.614378277661E0));
#153=CARTESIAN_POINT('',(7.2E1,0.E0,0.E0));
#154=DIRECTION('',(1.E0,0.E0,0.E0));
#155=DIRECTION('',(0.E0,0.E0,-1.E0));
#156=AXIS2_PLACEMENT_3D('',#153,#154,#155);
#158=CARTESIAN_POINT('',(7.2E1,0.E0,0.E0));
#159=DIRECTION('',(1.E0,0.E0,0.E0));
#160=DIRECTION('',(0.E0,0.E0,1.E0));
#161=AXIS2_PLACEMENT_3D('',#158,#159,#160);
#163=CARTESIAN_POINT('',(6.199999998846E1,-1.05E1,-2.845E2));
#164=DIRECTION('',(1.E0,-1.098769450425E-9,0.E0));
#165=DIRECTION('',(0.E0,7.773337529215E-12,1.E0));
#166=AXIS2_PLACEMENT_3D('',#163,#164,#165);
#168=CARTESIAN_POINT('',(6.200000001154E1,1.05E1,-2.845E2));
#169=DIRECTION('',(-1.E0,1.098769145114E-9,0.E0));
#170=DIRECTION('',(0.E0,-7.776890242894E-12,1.E0));
#171=AXIS2_PLACEMENT_3D('',#168,#169,#170);
#173=CARTESIAN_POINT('',(6.2E1,0.E0,-2.895E2));
#174=DIRECTION('',(0.E0,0.E0,-1.E0));
#175=DIRECTION('',(0.E0,-1.E0,0.E0));
#176=AXIS2_PLACEMENT_3D('',#173,#174,#175);
#178=CARTESIAN_POINT('',(6.2E1,0.E0,-2.845E2));
#179=DIRECTION('',(0.E0,0.E0,1.E0));
#180=DIRECTION('',(0.E0,1.E0,0.E0));
#181=AXIS2_PLACEMENT_3D('',#178,#179,#180);
#183=DIRECTION('',(-1.334399257757E-11,0.E0,-1.E0));
#184=VECTOR('',#183,5.E0);
#185=CARTESIAN_POINT('',(6.199999999926E1,-1.1E1,-2.845E2));
#186=LINE('',#185,#184);
#187=CARTESIAN_POINT('',(6.200000000862E1,-1.05E1,-2.895E2));
#188=DIRECTION('',(-1.E0,-8.211573782058E-10,0.E0));
#189=DIRECTION('',(0.E0,2.319922032257E-12,-1.E0));
#190=AXIS2_PLACEMENT_3D('',#187,#188,#189);
#192=CARTESIAN_POINT('',(6.2E1,0.E0,-2.9E2));
#193=DIRECTION('',(0.E0,0.E0,-1.E0));
#194=DIRECTION('',(0.E0,-1.E0,0.E0));
#195=AXIS2_PLACEMENT_3D('',#192,#193,#194);
#197=CARTESIAN_POINT('',(6.2E1,0.E0,-2.9E2));
#198=DIRECTION('',(0.E0,0.E0,-1.E0));
#199=DIRECTION('',(0.E0,1.E0,0.E0));
#200=AXIS2_PLACEMENT_3D('',#197,#198,#199);
#202=CARTESIAN_POINT('',(6.199999999138E1,1.05E1,-2.895E2));
#203=DIRECTION('',(1.E0,8.211579402562E-10,0.E0));
#204=DIRECTION('',(0.E0,-2.319922032257E-12,-1.E0));
#205=AXIS2_PLACEMENT_3D('',#202,#203,#204);
#207=CARTESIAN_POINT('',(6.2E1,0.E0,-2.895E2));
#208=DIRECTION('',(0.E0,0.E0,-1.E0));
#209=DIRECTION('',(0.E0,1.E0,0.E0));
#210=AXIS2_PLACEMENT_3D('',#207,#208,#209);
#212=CARTESIAN_POINT('',(6.2E1,0.E0,-2.845E2));
#213=DIRECTION('',(0.E0,0.E0,1.E0));
#214=DIRECTION('',(0.E0,-1.E0,0.E0));
#215=AXIS2_PLACEMENT_3D('',#212,#213,#214);
#217=DIRECTION('',(1.334541366305E-11,0.E0,-1.E0));
#218=VECTOR('',#217,5.E0);
#219=CARTESIAN_POINT('',(6.200000000074E1,1.1E1,-2.845E2));
#220=LINE('',#219,#218);
#221=CARTESIAN_POINT('',(1.15E1,2.432318013668E-9,2.6E1));
#222=DIRECTION('',(0.E0,-1.E0,9.355069496841E-11));
#223=DIRECTION('',(1.E0,0.E0,-3.339550858072E-13));
#224=AXIS2_PLACEMENT_3D('',#221,#222,#223);
#226=CARTESIAN_POINT('',(1.15E1,0.E0,0.E0));
#227=DIRECTION('',(1.E0,0.E0,0.E0));
#228=DIRECTION('',(0.E0,0.E0,1.E0));
#229=AXIS2_PLACEMENT_3D('',#226,#227,#228);
#231=DIRECTION('',(1.E0,-4.316984804023E-11,0.E0));
#232=VECTOR('',#231,1.15E1);
#233=CARTESIAN_POINT('',(0.E0,0.E0,2.65E1));
#234=LINE('',#233,#232);
#235=CARTESIAN_POINT('',(0.E0,0.E0,-2.65E1));
#236=CARTESIAN_POINT('',(0.E0,0.E0,2.65E1));
#237=VERTEX_POINT('',#235);
#238=VERTEX_POINT('',#236);
#239=CARTESIAN_POINT('',(7.2E1,0.E0,-1.E1));
#240=CARTESIAN_POINT('',(7.2E1,0.E0,1.E1));
#241=VERTEX_POINT('',#239);
#242=VERTEX_POINT('',#240);
#243=CARTESIAN_POINT('',(1.2E1,0.E0,-1.E1));
#244=CARTESIAN_POINT('',(1.2E1,0.E0,1.E1));
#245=VERTEX_POINT('',#243);
#246=VERTEX_POINT('',#244);
#247=VERTEX_POINT('',#45);
#248=VERTEX_POINT('',#60);
#249=VERTEX_POINT('',#77);
#250=VERTEX_POINT('',#115);
#251=CARTESIAN_POINT('',(6.2E1,7.5E0,-2.84E2));
#252=CARTESIAN_POINT('',(6.2E1,-7.5E0,-2.84E2));
#253=VERTEX_POINT('',#251);
#254=VERTEX_POINT('',#252);
#255=CARTESIAN_POINT('',(6.2E1,-1.05E1,-2.9E2));
#256=CARTESIAN_POINT('',(6.2E1,1.05E1,-2.9E2));
#257=VERTEX_POINT('',#255);
#258=VERTEX_POINT('',#256);
#259=CARTESIAN_POINT('',(6.2E1,-1.1E1,-2.895E2));
#260=CARTESIAN_POINT('',(6.2E1,1.1E1,-2.895E2));
#261=VERTEX_POINT('',#259);
#262=VERTEX_POINT('',#260);
#263=CARTESIAN_POINT('',(6.2E1,-1.05E1,-2.84E2));
#264=CARTESIAN_POINT('',(6.2E1,1.05E1,-2.84E2));
#265=VERTEX_POINT('',#263);
#266=VERTEX_POINT('',#264);
#267=CARTESIAN_POINT('',(6.2E1,-1.1E1,-2.845E2));
#268=CARTESIAN_POINT('',(6.2E1,1.1E1,-2.845E2));
#269=VERTEX_POINT('',#267);
#270=VERTEX_POINT('',#268);
#271=CARTESIAN_POINT('',(1.2E1,0.E0,2.6E1));
#272=CARTESIAN_POINT('',(1.2E1,0.E0,-2.6E1));
#273=VERTEX_POINT('',#271);
#274=VERTEX_POINT('',#272);
#275=CARTESIAN_POINT('',(1.15E1,0.E0,2.65E1));
#276=CARTESIAN_POINT('',(1.15E1,0.E0,-2.65E1));
#277=VERTEX_POINT('',#275);
#278=VERTEX_POINT('',#276);
#279=CARTESIAN_POINT('',(0.E0,0.E0,0.E0));
#280=DIRECTION('',(1.E0,0.E0,0.E0));
#281=DIRECTION('',(0.E0,0.E0,-1.E0));
#282=AXIS2_PLACEMENT_3D('',#279,#280,#281);
#283=PLANE('',#282);
#285=ORIENTED_EDGE('',*,*,#284,.T.);
#287=ORIENTED_EDGE('',*,*,#286,.T.);
#288=EDGE_LOOP('',(#285,#287));
#289=FACE_OUTER_BOUND('',#288,.F.);
#290=ADVANCED_FACE('',(#289),#283,.F.);
#291=CARTESIAN_POINT('',(0.E0,0.E0,0.E0));
#292=DIRECTION('',(1.E0,0.E0,0.E0));
#293=DIRECTION('',(0.E0,0.E0,-1.E0));
#294=AXIS2_PLACEMENT_3D('',#291,#292,#293);
#295=CYLINDRICAL_SURFACE('',#294,2.65E1);
#297=ORIENTED_EDGE('',*,*,#296,.T.);
#299=ORIENTED_EDGE('',*,*,#298,.F.);
#300=ORIENTED_EDGE('',*,*,#284,.F.);
#302=ORIENTED_EDGE('',*,*,#301,.T.);
#303=EDGE_LOOP('',(#297,#299,#300,#302));
#304=FACE_OUTER_BOUND('',#303,.F.);
#305=ADVANCED_FACE('',(#304),#295,.T.);
#306=CARTESIAN_POINT('',(1.15E1,0.E0,0.E0));
#307=DIRECTION('',(1.E0,0.E0,0.E0));
#308=DIRECTION('',(0.E0,-1.909462370785E-2,-9.998176810526E-1));
#309=AXIS2_PLACEMENT_3D('',#306,#307,#308);
#310=TOROIDAL_SURFACE('',#309,2.6E1,5.E-1);
#312=ORIENTED_EDGE('',*,*,#311,.T.);
#314=ORIENTED_EDGE('',*,*,#313,.T.);
#315=ORIENTED_EDGE('',*,*,#296,.F.);
#317=ORIENTED_EDGE('',*,*,#316,.F.);
#318=EDGE_LOOP('',(#312,#314,#315,#317));
#319=FACE_OUTER_BOUND('',#318,.F.);
#320=ADVANCED_FACE('',(#319),#310,.T.);
#321=CARTESIAN_POINT('',(1.2E1,0.E0,0.E0));
#322=DIRECTION('',(1.E0,0.E0,0.E0));
#323=DIRECTION('',(0.E0,0.E0,-1.E0));
#324=AXIS2_PLACEMENT_3D('',#321,#322,#323);
#325=PLANE('',#324);
#327=ORIENTED_EDGE('',*,*,#326,.F.);
#328=ORIENTED_EDGE('',*,*,#311,.F.);
#329=EDGE_LOOP('',(#327,#328));
#330=FACE_OUTER_BOUND('',#329,.F.);
#332=ORIENTED_EDGE('',*,*,#331,.T.);
#334=ORIENTED_EDGE('',*,*,#333,.T.);
#335=EDGE_LOOP('',(#332,#334));
#336=FACE_BOUND('',#335,.F.);
#337=ADVANCED_FACE('',(#330,#336),#325,.T.);
#338=CARTESIAN_POINT('',(1.2E1,0.E0,0.E0));
#339=DIRECTION('',(1.E0,0.E0,0.E0));
#340=DIRECTION('',(0.E0,0.E0,-1.E0));
#341=AXIS2_PLACEMENT_3D('',#338,#339,#340);
#342=CYLINDRICAL_SURFACE('',#341,1.E1);
#344=ORIENTED_EDGE('',*,*,#343,.T.);
#346=ORIENTED_EDGE('',*,*,#345,.T.);
#348=ORIENTED_EDGE('',*,*,#347,.T.);
#350=ORIENTED_EDGE('',*,*,#349,.T.);
#352=ORIENTED_EDGE('',*,*,#351,.F.);
#353=ORIENTED_EDGE('',*,*,#331,.F.);
#355=ORIENTED_EDGE('',*,*,#354,.T.);
#356=EDGE_LOOP('',(#344,#346,#348,#350,#352,#353,#355));
#357=FACE_OUTER_BOUND('',#356,.F.);
#358=ADVANCED_FACE('',(#357),#342,.T.);
#359=CARTESIAN_POINT('',(6.2E1,0.E0,0.E0));
#360=DIRECTION('',(0.E0,0.E0,1.E0));
#361=DIRECTION('',(0.E0,1.E0,0.E0));
#362=AXIS2_PLACEMENT_3D('',#359,#360,#361);
#363=CYLINDRICAL_SURFACE('',#362,7.5E0);
#365=ORIENTED_EDGE('',*,*,#364,.F.);
#367=ORIENTED_EDGE('',*,*,#366,.F.);
#368=ORIENTED_EDGE('',*,*,#343,.F.);
#370=ORIENTED_EDGE('',*,*,#369,.F.);
#372=ORIENTED_EDGE('',*,*,#371,.T.);
#373=EDGE_LOOP('',(#365,#367,#368,#370,#372));
#374=FACE_OUTER_BOUND('',#373,.F.);
#375=ADVANCED_FACE('',(#374),#363,.T.);
#376=CARTESIAN_POINT('',(0.E0,0.E0,-2.84E2));
#377=DIRECTION('',(0.E0,0.E0,-1.E0));
#378=DIRECTION('',(0.E0,-1.E0,0.E0));
#379=AXIS2_PLACEMENT_3D('',#376,#377,#378);
#380=PLANE('',#379);
#382=ORIENTED_EDGE('',*,*,#381,.F.);
#384=ORIENTED_EDGE('',*,*,#383,.F.);
#385=EDGE_LOOP('',(#382,#384));
#386=FACE_OUTER_BOUND('',#385,.F.);
#387=ORIENTED_EDGE('',*,*,#364,.T.);
#389=ORIENTED_EDGE('',*,*,#388,.T.);
#390=EDGE_LOOP('',(#387,#389));
#391=FACE_BOUND('',#390,.F.);
#392=ADVANCED_FACE('',(#386,#391),#380,.F.);
#393=CARTESIAN_POINT('',(6.2E1,0.E0,0.E0));
#394=DIRECTION('',(0.E0,0.E0,1.E0));
#395=DIRECTION('',(0.E0,1.E0,0.E0));
#396=AXIS2_PLACEMENT_3D('',#393,#394,#395);
#397=CYLINDRICAL_SURFACE('',#396,7.5E0);
#398=ORIENTED_EDGE('',*,*,#388,.F.);
#399=ORIENTED_EDGE('',*,*,#371,.F.);
#401=ORIENTED_EDGE('',*,*,#400,.F.);
#402=ORIENTED_EDGE('',*,*,#345,.F.);
#403=ORIENTED_EDGE('',*,*,#366,.T.);
#404=EDGE_LOOP('',(#398,#399,#401,#402,#403));
#405=FACE_OUTER_BOUND('',#404,.F.);
#406=ADVANCED_FACE('',(#405),#397,.T.);
#407=CARTESIAN_POINT('',(1.2E1,0.E0,0.E0));
#408=DIRECTION('',(1.E0,0.E0,0.E0));
#409=DIRECTION('',(0.E0,0.E0,-1.E0));
#410=AXIS2_PLACEMENT_3D('',#407,#408,#409);
#411=CYLINDRICAL_SURFACE('',#410,1.E1);
#412=ORIENTED_EDGE('',*,*,#369,.T.);
#413=ORIENTED_EDGE('',*,*,#354,.F.);
#414=ORIENTED_EDGE('',*,*,#333,.F.);
#415=ORIENTED_EDGE('',*,*,#351,.T.);
#417=ORIENTED_EDGE('',*,*,#416,.T.);
#418=ORIENTED_EDGE('',*,*,#347,.F.);
#419=ORIENTED_EDGE('',*,*,#400,.T.);
#420=EDGE_LOOP('',(#412,#413,#414,#415,#417,#418,#419));
#421=FACE_OUTER_BOUND('',#420,.F.);
#422=ADVANCED_FACE('',(#421),#411,.T.);
#423=CARTESIAN_POINT('',(7.2E1,0.E0,0.E0));
#424=DIRECTION('',(1.E0,0.E0,0.E0));
#425=DIRECTION('',(0.E0,0.E0,-1.E0));
#426=AXIS2_PLACEMENT_3D('',#423,#424,#425);
#427=PLANE('',#426);
#428=ORIENTED_EDGE('',*,*,#349,.F.);
#429=ORIENTED_EDGE('',*,*,#416,.F.);
#430=EDGE_LOOP('',(#428,#429));
#431=FACE_OUTER_BOUND('',#430,.F.);
#432=ADVANCED_FACE('',(#431),#427,.T.);
#433=CARTESIAN_POINT('',(6.2E1,0.E0,-2.845E2));
#434=DIRECTION('',(0.E0,0.E0,-1.E0));
#435=DIRECTION('',(-6.530399800752E-2,-9.978654156970E-1,0.E0));
#436=AXIS2_PLACEMENT_3D('',#433,#434,#435);
#437=TOROIDAL_SURFACE('',#436,1.05E1,5.E-1);
#438=ORIENTED_EDGE('',*,*,#381,.T.);
#440=ORIENTED_EDGE('',*,*,#439,.T.);
#442=ORIENTED_EDGE('',*,*,#441,.F.);
#444=ORIENTED_EDGE('',*,*,#443,.F.);
#445=EDGE_LOOP('',(#438,#440,#442,#444));
#446=FACE_OUTER_BOUND('',#445,.F.);
#447=ADVANCED_FACE('',(#446),#437,.T.);
#448=CARTESIAN_POINT('',(6.2E1,0.E0,-2.845E2));
#449=DIRECTION('',(0.E0,0.E0,-1.E0));
#450=DIRECTION('',(6.530399800752E-2,9.978654156970E-1,0.E0));
#451=AXIS2_PLACEMENT_3D('',#448,#449,#450);
#452=TOROIDAL_SURFACE('',#451,1.05E1,5.E-1);
#453=ORIENTED_EDGE('',*,*,#383,.T.);
#454=ORIENTED_EDGE('',*,*,#443,.T.);
#456=ORIENTED_EDGE('',*,*,#455,.F.);
#457=ORIENTED_EDGE('',*,*,#439,.F.);
#458=EDGE_LOOP('',(#453,#454,#456,#457));
#459=FACE_OUTER_BOUND('',#458,.F.);
#460=ADVANCED_FACE('',(#459),#452,.T.);
#461=CARTESIAN_POINT('',(6.2E1,0.E0,-2.84E2));
#462=DIRECTION('',(0.E0,0.E0,-1.E0));
#463=DIRECTION('',(0.E0,-1.E0,0.E0));
#464=AXIS2_PLACEMENT_3D('',#461,#462,#463);
#465=CYLINDRICAL_SURFACE('',#464,1.1E1);
#467=ORIENTED_EDGE('',*,*,#466,.T.);
#469=ORIENTED_EDGE('',*,*,#468,.F.);
#470=ORIENTED_EDGE('',*,*,#455,.T.);
#472=ORIENTED_EDGE('',*,*,#471,.T.);
#473=EDGE_LOOP('',(#467,#469,#470,#472));
#474=FACE_OUTER_BOUND('',#473,.F.);
#475=ADVANCED_FACE('',(#474),#465,.T.);
#476=CARTESIAN_POINT('',(6.2E1,0.E0,-2.895E2));
#477=DIRECTION('',(0.E0,0.E0,-1.E0));
#478=DIRECTION('',(4.598725555770E-2,-9.989420265092E-1,0.E0));
#479=AXIS2_PLACEMENT_3D('',#476,#477,#478);
#480=TOROIDAL_SURFACE('',#479,1.05E1,5.E-1);
#482=ORIENTED_EDGE('',*,*,#481,.T.);
#484=ORIENTED_EDGE('',*,*,#483,.T.);
#485=ORIENTED_EDGE('',*,*,#466,.F.);
#487=ORIENTED_EDGE('',*,*,#486,.F.);
#488=EDGE_LOOP('',(#482,#484,#485,#487));
#489=FACE_OUTER_BOUND('',#488,.F.);
#490=ADVANCED_FACE('',(#489),#480,.T.);
#491=CARTESIAN_POINT('',(0.E0,0.E0,-2.9E2));
#492=DIRECTION('',(0.E0,0.E0,-1.E0));
#493=DIRECTION('',(0.E0,-1.E0,0.E0));
#494=AXIS2_PLACEMENT_3D('',#491,#492,#493);
#495=PLANE('',#494);
#496=ORIENTED_EDGE('',*,*,#481,.F.);
#498=ORIENTED_EDGE('',*,*,#497,.F.);
#499=EDGE_LOOP('',(#496,#498));
#500=FACE_OUTER_BOUND('',#499,.F.);
#501=ADVANCED_FACE('',(#500),#495,.T.);
#502=CARTESIAN_POINT('',(6.2E1,0.E0,-2.895E2));
#503=DIRECTION('',(0.E0,0.E0,-1.E0));
#504=DIRECTION('',(-4.598725555770E-2,9.989420265092E-1,0.E0));
#505=AXIS2_PLACEMENT_3D('',#502,#503,#504);
#506=TOROIDAL_SURFACE('',#505,1.05E1,5.E-1);
#507=ORIENTED_EDGE('',*,*,#497,.T.);
#508=ORIENTED_EDGE('',*,*,#486,.T.);
#510=ORIENTED_EDGE('',*,*,#509,.F.);
#511=ORIENTED_EDGE('',*,*,#483,.F.);
#512=EDGE_LOOP('',(#507,#508,#510,#511));
#513=FACE_OUTER_BOUND('',#512,.F.);
#514=ADVANCED_FACE('',(#513),#506,.T.);
#515=CARTESIAN_POINT('',(6.2E1,0.E0,-2.84E2));
#516=DIRECTION('',(0.E0,0.E0,-1.E0));
#517=DIRECTION('',(0.E0,-1.E0,0.E0));
#518=AXIS2_PLACEMENT_3D('',#515,#516,#517);
#519=CYLINDRICAL_SURFACE('',#518,1.1E1);
#520=ORIENTED_EDGE('',*,*,#509,.T.);
#521=ORIENTED_EDGE('',*,*,#471,.F.);
#522=ORIENTED_EDGE('',*,*,#441,.T.);
#523=ORIENTED_EDGE('',*,*,#468,.T.);
#524=EDGE_LOOP('',(#520,#521,#522,#523));
#525=FACE_OUTER_BOUND('',#524,.F.);
#526=ADVANCED_FACE('',(#525),#519,.T.);
#527=CARTESIAN_POINT('',(1.15E1,0.E0,0.E0));
#528=DIRECTION('',(1.E0,0.E0,0.E0));
#529=DIRECTION('',(0.E0,1.909462370785E-2,9.998176810526E-1));
#530=AXIS2_PLACEMENT_3D('',#527,#528,#529);
#531=TOROIDAL_SURFACE('',#530,2.6E1,5.E-1);
#532=ORIENTED_EDGE('',*,*,#326,.T.);
#533=ORIENTED_EDGE('',*,*,#316,.T.);
#535=ORIENTED_EDGE('',*,*,#534,.F.);
#536=ORIENTED_EDGE('',*,*,#313,.F.);
#537=EDGE_LOOP('',(#532,#533,#535,#536));
#538=FACE_OUTER_BOUND('',#537,.F.);
#539=ADVANCED_FACE('',(#538),#531,.T.);
#540=CARTESIAN_POINT('',(0.E0,0.E0,0.E0));
#541=DIRECTION('',(1.E0,0.E0,0.E0));
#542=DIRECTION('',(0.E0,0.E0,-1.E0));
#543=AXIS2_PLACEMENT_3D('',#540,#541,#542);
#544=CYLINDRICAL_SURFACE('',#543,2.65E1);
#545=ORIENTED_EDGE('',*,*,#534,.T.);
#546=ORIENTED_EDGE('',*,*,#301,.F.);
#547=ORIENTED_EDGE('',*,*,#286,.F.);
#548=ORIENTED_EDGE('',*,*,#298,.T.);
#549=EDGE_LOOP('',(#545,#546,#547,#548));
#550=FACE_OUTER_BOUND('',#549,.F.);
#551=ADVANCED_FACE('',(#550),#544,.T.);
#552=CLOSED_SHELL('',(#290,#305,#320,#337,#358,#375,#392,#406,#422,#432,#447,
#460,#475,#490,#501,#514,#526,#539,#551));
#553=MANIFOLD_SOLID_BREP('',#552);
#555=DIMENSIONAL_EXPONENTS(0.E0,0.E0,0.E0,0.E0,0.E0,0.E0,0.E0);
#557=PLANE_ANGLE_MEASURE_WITH_UNIT(PLANE_ANGLE_MEASURE(1.745329251994E-2),#556);
#558=(CONVERSION_BASED_UNIT('DEGREE',#557)NAMED_UNIT(*)PLANE_ANGLE_UNIT());
#560=UNCERTAINTY_MEASURE_WITH_UNIT(LENGTH_MEASURE(3.290920621244E-2),#554,
'closure',
'Maximum model space distance between geometric entities at asserted connectivities');
#561=(GEOMETRIC_REPRESENTATION_CONTEXT(3)GLOBAL_UNCERTAINTY_ASSIGNED_CONTEXT((
#560))GLOBAL_UNIT_ASSIGNED_CONTEXT((#554,#558,#559))REPRESENTATION_CONTEXT
('ID1','3'));
#563=APPLICATION_CONTEXT(
'CONFIGURATION CONTROLLED 3D DESIGNS OF MECHANICAL PARTS AND ASSEMBLIES');
#564=APPLICATION_PROTOCOL_DEFINITION('international standard',
'config_control_design',1994,#563);
#565=DESIGN_CONTEXT('',#563,'design');
#566=MECHANICAL_CONTEXT('',#563,'mechanical');
#567=PRODUCT('121','121','NOT SPECIFIED',(#566));
#568=PRODUCT_DEFINITION_FORMATION_WITH_SPECIFIED_SOURCE('1','LAST_VERSION',#567,
.MADE.);
#572=PRODUCT_CATEGORY('part','');
#573=PRODUCT_RELATED_PRODUCT_CATEGORY('detail','',(#567));
#574=PRODUCT_CATEGORY_RELATIONSHIP('','',#572,#573);
#575=SECURITY_CLASSIFICATION_LEVEL('unclassified');
#576=SECURITY_CLASSIFICATION('','',#575);
#577=CC_DESIGN_SECURITY_CLASSIFICATION(#576,(#568));
#578=APPROVAL_STATUS('approved');
#579=APPROVAL(#578,'');
#580=CC_DESIGN_APPROVAL(#579,(#576,#568,#569));
#581=CALENDAR_DATE(120,4,12);
#582=COORDINATED_UNIVERSAL_TIME_OFFSET(8,0,.AHEAD.);
#583=LOCAL_TIME(19,36,5.E1,#582);
#584=DATE_AND_TIME(#581,#583);
#585=APPROVAL_DATE_TIME(#584,#579);
#586=DATE_TIME_ROLE('creation_date');
#587=CC_DESIGN_DATE_AND_TIME_ASSIGNMENT(#584,#586,(#569));
#588=DATE_TIME_ROLE('classification_date');
#589=CC_DESIGN_DATE_AND_TIME_ASSIGNMENT(#584,#588,(#576));
#590=PERSON('UNSPECIFIED','UNSPECIFIED',$,$,$,$);
#591=ORGANIZATION('UNSPECIFIED','UNSPECIFIED','UNSPECIFIED');
#592=PERSON_AND_ORGANIZATION(#590,#591);
#593=APPROVAL_ROLE('approver');
#594=APPROVAL_PERSON_ORGANIZATION(#592,#579,#593);
#595=PERSON_AND_ORGANIZATION_ROLE('creator');
#596=CC_DESIGN_PERSON_AND_ORGANIZATION_ASSIGNMENT(#592,#595,(#568,#569));
#597=PERSON_AND_ORGANIZATION_ROLE('design_supplier');
#598=CC_DESIGN_PERSON_AND_ORGANIZATION_ASSIGNMENT(#592,#597,(#568));
#599=PERSON_AND_ORGANIZATION_ROLE('classification_officer');
#600=CC_DESIGN_PERSON_AND_ORGANIZATION_ASSIGNMENT(#592,#599,(#576));
#601=PERSON_AND_ORGANIZATION_ROLE('design_owner');
#602=CC_DESIGN_PERSON_AND_ORGANIZATION_ASSIGNMENT(#592,#601,(#567));
#5=CIRCLE('',#4,2.65E1);
#10=CIRCLE('',#9,2.65E1);
#15=CIRCLE('',#14,2.65E1);
#24=CIRCLE('',#23,5.E-1);
#29=CIRCLE('',#28,1.E1);
#34=CIRCLE('',#33,1.E1);
#39=CIRCLE('',#38,2.6E1);
#44=CIRCLE('',#43,2.6E1);
#61=B_SPLINE_CURVE_WITH_KNOTS('',3,(#45,#46,#47,#48,#49,#50,#51,#52,#53,#54,#55,
#56,#57,#58,#59,#60),.UNSPECIFIED.,.F.,.F.,(4,1,1,1,1,1,1,1,1,1,1,1,1,4),(0.E0,
7.692307692308E-2,1.538461538462E-1,2.307692307692E-1,3.076923076923E-1,
3.846153846154E-1,4.615384615385E-1,5.384615384615E-1,6.153846153846E-1,
6.923076923077E-1,7.692307692308E-1,8.461538461538E-1,9.230769230769E-1,1.E0),
.UNSPECIFIED.);
#78=B_SPLINE_CURVE_WITH_KNOTS('',3,(#62,#63,#64,#65,#66,#67,#68,#69,#70,#71,#72,
#73,#74,#75,#76,#77),.UNSPECIFIED.,.F.,.F.,(4,1,1,1,1,1,1,1,1,1,1,1,1,4),(0.E0,
7.692307692308E-2,1.538461538462E-1,2.307692307692E-1,3.076923076923E-1,
3.846153846154E-1,4.615384615385E-1,5.384615384615E-1,6.153846153846E-1,
6.923076923077E-1,7.692307692308E-1,8.461538461538E-1,9.230769230769E-1,1.E0),
.UNSPECIFIED.);
#91=CIRCLE('',#90,7.5E0);
#100=CIRCLE('',#99,1.05E1);
#105=CIRCLE('',#104,1.05E1);
#110=CIRCLE('',#109,7.5E0);
#131=B_SPLINE_CURVE_WITH_KNOTS('',3,(#115,#116,#117,#118,#119,#120,#121,#122,
#123,#124,#125,#126,#127,#128,#129,#130),.UNSPECIFIED.,.F.,.F.,(4,1,1,1,1,1,1,1,
1,1,1,1,1,4),(0.E0,7.692307692308E-2,1.538461538462E-1,2.307692307692E-1,
3.076923076923E-1,3.846153846154E-1,4.615384615385E-1,5.384615384615E-1,
6.153846153846E-1,6.923076923077E-1,7.692307692308E-1,8.461538461538E-1,
9.230769230769E-1,1.E0),.UNSPECIFIED.);
#152=B_SPLINE_CURVE_WITH_KNOTS('',3,(#136,#137,#138,#139,#140,#141,#142,#143,
#144,#145,#146,#147,#148,#149,#150,#151),.UNSPECIFIED.,.F.,.F.,(4,1,1,1,1,1,1,1,
1,1,1,1,1,4),(0.E0,7.692307692308E-2,1.538461538462E-1,2.307692307692E-1,
3.076923076923E-1,3.846153846154E-1,4.615384615385E-1,5.384615384615E-1,
6.153846153846E-1,6.923076923077E-1,7.692307692308E-1,8.461538461538E-1,
9.230769230769E-1,1.E0),.UNSPECIFIED.);
#157=CIRCLE('',#156,1.E1);
#162=CIRCLE('',#161,1.E1);
#167=CIRCLE('',#166,5.E-1);
#172=CIRCLE('',#171,5.E-1);
#177=CIRCLE('',#176,1.1E1);
#182=CIRCLE('',#181,1.1E1);
#191=CIRCLE('',#190,5.E-1);
#196=CIRCLE('',#195,1.05E1);
#201=CIRCLE('',#200,1.05E1);
#206=CIRCLE('',#205,5.E-1);
#211=CIRCLE('',#210,1.1E1);
#216=CIRCLE('',#215,1.1E1);
#225=CIRCLE('',#224,5.E-1);
#230=CIRCLE('',#229,2.65E1);
#284=EDGE_CURVE('',#237,#238,#5,.T.);
#286=EDGE_CURVE('',#238,#237,#10,.T.);
#296=EDGE_CURVE('',#278,#277,#15,.T.);
#298=EDGE_CURVE('',#238,#277,#234,.T.);
#301=EDGE_CURVE('',#237,#278,#19,.T.);
#311=EDGE_CURVE('',#274,#273,#44,.T.);
#313=EDGE_CURVE('',#273,#277,#225,.T.);
#316=EDGE_CURVE('',#274,#278,#24,.T.);
#326=EDGE_CURVE('',#273,#274,#39,.T.);
#331=EDGE_CURVE('',#245,#246,#29,.T.);
#333=EDGE_CURVE('',#246,#245,#34,.T.);
#343=EDGE_CURVE('',#247,#248,#61,.T.);
#345=EDGE_CURVE('',#248,#249,#78,.T.);
#347=EDGE_CURVE('',#249,#241,#82,.T.);
#349=EDGE_CURVE('',#241,#242,#157,.T.);
#351=EDGE_CURVE('',#246,#242,#135,.T.);
#354=EDGE_CURVE('',#245,#247,#86,.T.);
#364=EDGE_CURVE('',#253,#254,#91,.T.);
#366=EDGE_CURVE('',#248,#253,#95,.T.);
#369=EDGE_CURVE('',#250,#247,#131,.T.);
#371=EDGE_CURVE('',#250,#254,#114,.T.);
#381=EDGE_CURVE('',#265,#266,#100,.T.);
#383=EDGE_CURVE('',#266,#265,#105,.T.);
#388=EDGE_CURVE('',#254,#253,#110,.T.);
#400=EDGE_CURVE('',#249,#250,#152,.T.);
#416=EDGE_CURVE('',#242,#241,#162,.T.);
#439=EDGE_CURVE('',#266,#270,#172,.T.);
#441=EDGE_CURVE('',#269,#270,#216,.T.);
#443=EDGE_CURVE('',#265,#269,#167,.T.);
#455=EDGE_CURVE('',#270,#269,#182,.T.);
#466=EDGE_CURVE('',#261,#262,#177,.T.);
#468=EDGE_CURVE('',#270,#262,#220,.T.);
#471=EDGE_CURVE('',#269,#261,#186,.T.);
#481=EDGE_CURVE('',#257,#258,#196,.T.);
#483=EDGE_CURVE('',#258,#262,#206,.T.);
#486=EDGE_CURVE('',#257,#261,#191,.T.);
#497=EDGE_CURVE('',#258,#257,#201,.T.);
#509=EDGE_CURVE('',#262,#261,#211,.T.);
#534=EDGE_CURVE('',#277,#278,#230,.T.);
#554=(LENGTH_UNIT()NAMED_UNIT(*)SI_UNIT(.MILLI.,.METRE.));
#556=(NAMED_UNIT(*)PLANE_ANGLE_UNIT()SI_UNIT($,.RADIAN.));
#559=(NAMED_UNIT(*)SI_UNIT($,.STERADIAN.)SOLID_ANGLE_UNIT());
#562=ADVANCED_BREP_SHAPE_REPRESENTATION('',(#553),#561);
#569=PRODUCT_DEFINITION('design','',#568,#565);
#570=PRODUCT_DEFINITION_SHAPE('','SHAPE FOR 121.',#569);
#571=SHAPE_DEFINITION_REPRESENTATION(#570,#562);
ENDSEC;
END-ISO-10303-21;
