ISO-10303-21;
HEADER;
FILE_DESCRIPTION((''),'2;1');
FILE_NAME('161','2019-02-17T',('MQ'),(''),
'PRO/ENGINEER BY PARAMETRIC TECHNOLOGY CORPORATION, 2012130',
'PRO/ENGINEER BY PARAMETRIC TECHNOLOGY CORPORATION, 2012130','');
FILE_SCHEMA(('CONFIG_CONTROL_DESIGN'));
ENDSEC;
DATA;
#1=CARTESIAN_POINT('',(0.E0,0.E0,0.E0));
#2=DIRECTION('',(1.E0,0.E0,0.E0));
#3=DIRECTION('',(0.E0,0.E0,-1.E0));
#4=AXIS2_PLACEMENT_3D('',#1,#2,#3);
#6=CARTESIAN_POINT('',(0.E0,0.E0,0.E0));
#7=DIRECTION('',(1.E0,0.E0,0.E0));
#8=DIRECTION('',(0.E0,0.E0,1.E0));
#9=AXIS2_PLACEMENT_3D('',#6,#7,#8);
#11=CARTESIAN_POINT('',(1.1E1,0.E0,0.E0));
#12=DIRECTION('',(1.E0,0.E0,0.E0));
#13=DIRECTION('',(0.E0,0.E0,-1.E0));
#14=AXIS2_PLACEMENT_3D('',#11,#12,#13);
#16=DIRECTION('',(1.E0,-1.731904236438E-13,0.E0));
#17=VECTOR('',#16,1.1E1);
#18=CARTESIAN_POINT('',(0.E0,0.E0,-2.65E1));
#19=LINE('',#18,#17);
#20=CARTESIAN_POINT('',(1.1E1,0.E0,-2.55E1));
#21=DIRECTION('',(0.E0,1.E0,0.E0));
#22=DIRECTION('',(1.E0,0.E0,0.E0));
#23=AXIS2_PLACEMENT_3D('',#20,#21,#22);
#25=CARTESIAN_POINT('',(1.2E1,0.E0,0.E0));
#26=DIRECTION('',(1.E0,0.E0,0.E0));
#27=DIRECTION('',(0.E0,0.E0,-1.E0));
#28=AXIS2_PLACEMENT_3D('',#25,#26,#27);
#30=CARTESIAN_POINT('',(1.2E1,0.E0,0.E0));
#31=DIRECTION('',(1.E0,0.E0,0.E0));
#32=DIRECTION('',(0.E0,0.E0,1.E0));
#33=AXIS2_PLACEMENT_3D('',#30,#31,#32);
#35=CARTESIAN_POINT('',(1.2E1,0.E0,0.E0));
#36=DIRECTION('',(1.E0,0.E0,0.E0));
#37=DIRECTION('',(0.E0,0.E0,1.E0));
#38=AXIS2_PLACEMENT_3D('',#35,#36,#37);
#40=CARTESIAN_POINT('',(1.2E1,0.E0,0.E0));
#41=DIRECTION('',(1.E0,0.E0,0.E0));
#42=DIRECTION('',(0.E0,0.E0,-1.E0));
#43=AXIS2_PLACEMENT_3D('',#40,#41,#42);
#45=CARTESIAN_POINT('',(4.8E1,9.5E0,0.E0));
#46=CARTESIAN_POINT('',(4.8E1,9.5E0,-3.068159324069E-1));
#47=CARTESIAN_POINT('',(4.794573922008E1,9.471215123810E0,-9.155332549238E-1));
#48=CARTESIAN_POINT('',(4.768000658989E1,9.334032145892E0,-1.843073834642E0));
#49=CARTESIAN_POINT('',(4.726397609889E1,9.130751274745E0,-2.663405573087E0));
#50=CARTESIAN_POINT('',(4.671264885488E1,8.884438785163E0,-3.389486613156E0));
#51=CARTESIAN_POINT('',(4.604698542701E1,8.624406868130E0,-3.999068191354E0));
#52=CARTESIAN_POINT('',(4.526463525584E1,8.376753561230E0,-4.489427970504E0));
#53=CARTESIAN_POINT('',(4.440119753663E1,8.181913032689E0,-4.830687278715E0));
#54=CARTESIAN_POINT('',(4.345378471762E1,8.071562287317E0,-5.010108967245E0));
#55=CARTESIAN_POINT('',(4.249867934127E1,8.074306961195E0,-5.005769085033E0));
#56=CARTESIAN_POINT('',(4.154925779181E1,8.190590483508E0,-4.816212579830E0));
#57=CARTESIAN_POINT('',(4.069017304590E1,8.389370983461E0,-4.466064431152E0));
#58=CARTESIAN_POINT('',(3.991809223617E1,8.637110124598E0,-3.971606137625E0));
#59=CARTESIAN_POINT('',(3.926359696819E1,8.894598934433E0,-3.362511132994E0));
#60=CARTESIAN_POINT('',(3.872192118106E1,9.137467192708E0,-2.639761698130E0));
#61=CARTESIAN_POINT('',(3.831349516303E1,9.337350638432E0,-1.824945780326E0));
#62=CARTESIAN_POINT('',(3.805308723748E1,9.471842286719E0,-9.058481006210E-1));
#63=CARTESIAN_POINT('',(3.8E1,9.5E0,-3.034381833365E-1));
#64=CARTESIAN_POINT('',(3.8E1,9.5E0,0.E0));
#66=CARTESIAN_POINT('',(3.8E1,9.5E0,0.E0));
#67=CARTESIAN_POINT('',(3.8E1,9.5E0,3.072237099220E-1));
#68=CARTESIAN_POINT('',(3.805442154570E1,9.471129982406E0,9.165467678226E-1));
#69=CARTESIAN_POINT('',(3.832039671617E1,9.333828024892E0,1.844084614053E0));
#70=CARTESIAN_POINT('',(3.873659484026E1,9.130482120166E0,2.664327505678E0));
#71=CARTESIAN_POINT('',(3.928820307057E1,8.884074387217E0,3.390455910945E0));
#72=CARTESIAN_POINT('',(3.995448397231E1,8.623868308049E0,4.000238498293E0));
#73=CARTESIAN_POINT('',(4.073748387089E1,8.376167349212E0,4.490507273663E0));
#74=CARTESIAN_POINT('',(4.160073948121E1,8.181607746225E0,4.831188038738E0));
#75=CARTESIAN_POINT('',(4.254689996392E1,8.071584801154E0,5.010071670597E0));
#76=CARTESIAN_POINT('',(4.350041009019E1,8.074311748862E0,5.005759426815E0));
#77=CARTESIAN_POINT('',(4.444857776852E1,8.190232412507E0,4.816803237348E0));
#78=CARTESIAN_POINT('',(4.530753143053E1,8.388723798001E0,4.467265101852E0));
#79=CARTESIAN_POINT('',(4.608031681863E1,8.636522228248E0,3.972894018144E0));
#80=CARTESIAN_POINT('',(4.673547370951E1,8.894199447417E0,3.363584896346E0));
#81=CARTESIAN_POINT('',(4.727747498520E1,9.137181613525E0,2.640750243228E0));
#82=CARTESIAN_POINT('',(4.768608244831E1,9.337136625978E0,1.826025009057E0));
#83=CARTESIAN_POINT('',(4.794675925385E1,9.471760872226E0,9.068512447969E-1));
#84=CARTESIAN_POINT('',(4.8E1,9.5E0,3.038390680408E-1));
#85=CARTESIAN_POINT('',(4.8E1,9.5E0,0.E0));
#87=CARTESIAN_POINT('',(5.E1,0.E0,0.E0));
#88=DIRECTION('',(1.E0,0.E0,0.E0));
#89=DIRECTION('',(0.E0,0.E0,-1.E0));
#90=AXIS2_PLACEMENT_3D('',#87,#88,#89);
#92=DIRECTION('',(1.E0,-3.992583098155E-13,0.E0));
#93=VECTOR('',#92,3.8E1);
#94=CARTESIAN_POINT('',(1.2E1,0.E0,-9.5E0));
#95=LINE('',#94,#93);
#96=CARTESIAN_POINT('',(4.3E1,2.4E1,0.E0));
#97=DIRECTION('',(0.E0,1.E0,0.E0));
#98=DIRECTION('',(1.E0,0.E0,0.E0));
#99=AXIS2_PLACEMENT_3D('',#96,#97,#98);
#101=DIRECTION('',(0.E0,1.E0,5.145793685537E-11));
#102=VECTOR('',#101,1.45E1);
#103=CARTESIAN_POINT('',(4.8E1,9.5E0,0.E0));
#104=LINE('',#103,#102);
#105=CARTESIAN_POINT('',(4.7E1,2.4E1,0.E0));
#106=DIRECTION('',(0.E0,0.E0,-1.E0));
#107=DIRECTION('',(0.E0,1.E0,0.E0));
#108=AXIS2_PLACEMENT_3D('',#105,#106,#107);
#110=CARTESIAN_POINT('',(4.3E1,2.5E1,0.E0));
#111=DIRECTION('',(0.E0,1.E0,0.E0));
#112=DIRECTION('',(1.E0,0.E0,0.E0));
#113=AXIS2_PLACEMENT_3D('',#110,#111,#112);
#115=CARTESIAN_POINT('',(4.3E1,2.5E1,0.E0));
#116=DIRECTION('',(0.E0,1.E0,0.E0));
#117=DIRECTION('',(-1.E0,0.E0,0.E0));
#118=AXIS2_PLACEMENT_3D('',#115,#116,#117);
#120=CARTESIAN_POINT('',(3.9E1,2.4E1,0.E0));
#121=DIRECTION('',(0.E0,0.E0,1.E0));
#122=DIRECTION('',(0.E0,1.E0,0.E0));
#123=AXIS2_PLACEMENT_3D('',#120,#121,#122);
#125=CARTESIAN_POINT('',(4.3E1,2.4E1,0.E0));
#126=DIRECTION('',(0.E0,1.E0,0.E0));
#127=DIRECTION('',(-1.E0,0.E0,0.E0));
#128=AXIS2_PLACEMENT_3D('',#125,#126,#127);
#130=DIRECTION('',(0.E0,1.E0,-5.145838417645E-11));
#131=VECTOR('',#130,1.45E1);
#132=CARTESIAN_POINT('',(3.8E1,9.5E0,0.E0));
#133=LINE('',#132,#131);
#134=CARTESIAN_POINT('',(5.E1,0.E0,-8.5E0));
#135=DIRECTION('',(0.E0,1.E0,0.E0));
#136=DIRECTION('',(1.E0,0.E0,0.E0));
#137=AXIS2_PLACEMENT_3D('',#134,#135,#136);
#139=CARTESIAN_POINT('',(5.1E1,0.E0,0.E0));
#140=DIRECTION('',(1.E0,0.E0,0.E0));
#141=DIRECTION('',(0.E0,0.E0,1.E0));
#142=AXIS2_PLACEMENT_3D('',#139,#140,#141);
#144=CARTESIAN_POINT('',(5.1E1,0.E0,0.E0));
#145=DIRECTION('',(1.E0,0.E0,0.E0));
#146=DIRECTION('',(0.E0,0.E0,-1.E0));
#147=AXIS2_PLACEMENT_3D('',#144,#145,#146);
#149=CARTESIAN_POINT('',(5.E1,0.E0,8.5E0));
#150=DIRECTION('',(0.E0,-1.E0,0.E0));
#151=DIRECTION('',(1.E0,0.E0,0.E0));
#152=AXIS2_PLACEMENT_3D('',#149,#150,#151);
#154=CARTESIAN_POINT('',(5.E1,0.E0,0.E0));
#155=DIRECTION('',(1.E0,0.E0,0.E0));
#156=DIRECTION('',(0.E0,0.E0,1.E0));
#157=AXIS2_PLACEMENT_3D('',#154,#155,#156);
#159=DIRECTION('',(1.E0,3.992347693580E-13,0.E0));
#160=VECTOR('',#159,3.8E1);
#161=CARTESIAN_POINT('',(1.2E1,0.E0,9.5E0));
#162=LINE('',#161,#160);
#163=CARTESIAN_POINT('',(1.1E1,0.E0,2.55E1));
#164=DIRECTION('',(0.E0,-1.E0,0.E0));
#165=DIRECTION('',(1.E0,0.E0,-1.421085471520E-14));
#166=AXIS2_PLACEMENT_3D('',#163,#164,#165);
#168=CARTESIAN_POINT('',(1.1E1,0.E0,0.E0));
#169=DIRECTION('',(1.E0,0.E0,0.E0));
#170=DIRECTION('',(0.E0,0.E0,1.E0));
#171=AXIS2_PLACEMENT_3D('',#168,#169,#170);
#173=DIRECTION('',(1.E0,1.734371172437E-13,0.E0));
#174=VECTOR('',#173,1.1E1);
#175=CARTESIAN_POINT('',(0.E0,0.E0,2.65E1));
#176=LINE('',#175,#174);
#177=CARTESIAN_POINT('',(0.E0,0.E0,-2.65E1));
#178=CARTESIAN_POINT('',(0.E0,0.E0,2.65E1));
#179=VERTEX_POINT('',#177);
#180=VERTEX_POINT('',#178);
#181=CARTESIAN_POINT('',(1.2E1,0.E0,-9.5E0));
#182=CARTESIAN_POINT('',(1.2E1,0.E0,9.5E0));
#183=VERTEX_POINT('',#181);
#184=VERTEX_POINT('',#182);
#185=VERTEX_POINT('',#45);
#186=VERTEX_POINT('',#64);
#187=CARTESIAN_POINT('',(1.2E1,0.E0,2.55E1));
#188=CARTESIAN_POINT('',(1.2E1,0.E0,-2.55E1));
#189=VERTEX_POINT('',#187);
#190=VERTEX_POINT('',#188);
#191=CARTESIAN_POINT('',(1.1E1,0.E0,2.65E1));
#192=CARTESIAN_POINT('',(1.1E1,0.E0,-2.65E1));
#193=VERTEX_POINT('',#191);
#194=VERTEX_POINT('',#192);
#195=CARTESIAN_POINT('',(5.1E1,0.E0,8.5E0));
#196=CARTESIAN_POINT('',(5.1E1,0.E0,-8.5E0));
#197=VERTEX_POINT('',#195);
#198=VERTEX_POINT('',#196);
#199=CARTESIAN_POINT('',(5.E1,0.E0,9.5E0));
#200=CARTESIAN_POINT('',(5.E1,0.E0,-9.5E0));
#201=VERTEX_POINT('',#199);
#202=VERTEX_POINT('',#200);
#203=CARTESIAN_POINT('',(4.7E1,2.5E1,0.E0));
#204=CARTESIAN_POINT('',(3.9E1,2.5E1,0.E0));
#205=VERTEX_POINT('',#203);
#206=VERTEX_POINT('',#204);
#207=CARTESIAN_POINT('',(4.8E1,2.4E1,0.E0));
#208=CARTESIAN_POINT('',(3.8E1,2.4E1,0.E0));
#209=VERTEX_POINT('',#207);
#210=VERTEX_POINT('',#208);
#211=CARTESIAN_POINT('',(0.E0,0.E0,0.E0));
#212=DIRECTION('',(1.E0,0.E0,0.E0));
#213=DIRECTION('',(0.E0,0.E0,-1.E0));
#214=AXIS2_PLACEMENT_3D('',#211,#212,#213);
#215=PLANE('',#214);
#217=ORIENTED_EDGE('',*,*,#216,.T.);
#219=ORIENTED_EDGE('',*,*,#218,.T.);
#220=EDGE_LOOP('',(#217,#219));
#221=FACE_OUTER_BOUND('',#220,.F.);
#222=ADVANCED_FACE('',(#221),#215,.F.);
#223=CARTESIAN_POINT('',(0.E0,0.E0,0.E0));
#224=DIRECTION('',(1.E0,0.E0,0.E0));
#225=DIRECTION('',(0.E0,0.E0,-1.E0));
#226=AXIS2_PLACEMENT_3D('',#223,#224,#225);
#227=CYLINDRICAL_SURFACE('',#226,2.65E1);
#229=ORIENTED_EDGE('',*,*,#228,.T.);
#231=ORIENTED_EDGE('',*,*,#230,.F.);
#232=ORIENTED_EDGE('',*,*,#216,.F.);
#234=ORIENTED_EDGE('',*,*,#233,.T.);
#235=EDGE_LOOP('',(#229,#231,#232,#234));
#236=FACE_OUTER_BOUND('',#235,.F.);
#237=ADVANCED_FACE('',(#236),#227,.T.);
#238=CARTESIAN_POINT('',(1.1E1,0.E0,0.E0));
#239=DIRECTION('',(1.E0,0.E0,0.E0));
#240=DIRECTION('',(0.E0,-5.260296292132E-3,-9.999861645457E-1));
#241=AXIS2_PLACEMENT_3D('',#238,#239,#240);
#242=TOROIDAL_SURFACE('',#241,2.55E1,1.E0);
#244=ORIENTED_EDGE('',*,*,#243,.T.);
#246=ORIENTED_EDGE('',*,*,#245,.T.);
#247=ORIENTED_EDGE('',*,*,#228,.F.);
#249=ORIENTED_EDGE('',*,*,#248,.F.);
#250=EDGE_LOOP('',(#244,#246,#247,#249));
#251=FACE_OUTER_BOUND('',#250,.F.);
#252=ADVANCED_FACE('',(#251),#242,.T.);
#253=CARTESIAN_POINT('',(1.2E1,0.E0,0.E0));
#254=DIRECTION('',(1.E0,0.E0,0.E0));
#255=DIRECTION('',(0.E0,0.E0,-1.E0));
#256=AXIS2_PLACEMENT_3D('',#253,#254,#255);
#257=PLANE('',#256);
#259=ORIENTED_EDGE('',*,*,#258,.F.);
#260=ORIENTED_EDGE('',*,*,#243,.F.);
#261=EDGE_LOOP('',(#259,#260));
#262=FACE_OUTER_BOUND('',#261,.F.);
#264=ORIENTED_EDGE('',*,*,#263,.T.);
#266=ORIENTED_EDGE('',*,*,#265,.T.);
#267=EDGE_LOOP('',(#264,#266));
#268=FACE_BOUND('',#267,.F.);
#269=ADVANCED_FACE('',(#262,#268),#257,.T.);
#270=CARTESIAN_POINT('',(1.2E1,0.E0,0.E0));
#271=DIRECTION('',(1.E0,0.E0,0.E0));
#272=DIRECTION('',(0.E0,0.E0,-1.E0));
#273=AXIS2_PLACEMENT_3D('',#270,#271,#272);
#274=CYLINDRICAL_SURFACE('',#273,9.5E0);
#276=ORIENTED_EDGE('',*,*,#275,.T.);
#278=ORIENTED_EDGE('',*,*,#277,.F.);
#279=ORIENTED_EDGE('',*,*,#263,.F.);
#281=ORIENTED_EDGE('',*,*,#280,.T.);
#282=EDGE_LOOP('',(#276,#278,#279,#281));
#283=FACE_OUTER_BOUND('',#282,.F.);
#285=ORIENTED_EDGE('',*,*,#284,.T.);
#287=ORIENTED_EDGE('',*,*,#286,.T.);
#288=EDGE_LOOP('',(#285,#287));
#289=FACE_BOUND('',#288,.F.);
#290=ADVANCED_FACE('',(#283,#289),#274,.T.);
#291=CARTESIAN_POINT('',(4.3E1,0.E0,0.E0));
#292=DIRECTION('',(0.E0,1.E0,0.E0));
#293=DIRECTION('',(1.E0,0.E0,0.E0));
#294=AXIS2_PLACEMENT_3D('',#291,#292,#293);
#295=CYLINDRICAL_SURFACE('',#294,5.E0);
#297=ORIENTED_EDGE('',*,*,#296,.T.);
#299=ORIENTED_EDGE('',*,*,#298,.F.);
#300=ORIENTED_EDGE('',*,*,#284,.F.);
#302=ORIENTED_EDGE('',*,*,#301,.T.);
#303=EDGE_LOOP('',(#297,#299,#300,#302));
#304=FACE_OUTER_BOUND('',#303,.F.);
#305=ADVANCED_FACE('',(#304),#295,.T.);
#306=CARTESIAN_POINT('',(4.3E1,2.4E1,0.E0));
#307=DIRECTION('',(0.E0,1.E0,0.E0));
#308=DIRECTION('',(9.996113863666E-1,0.E0,2.787608735391E-2));
#309=AXIS2_PLACEMENT_3D('',#306,#307,#308);
#310=TOROIDAL_SURFACE('',#309,4.E0,1.E0);
#312=ORIENTED_EDGE('',*,*,#311,.T.);
#314=ORIENTED_EDGE('',*,*,#313,.T.);
#315=ORIENTED_EDGE('',*,*,#296,.F.);
#317=ORIENTED_EDGE('',*,*,#316,.F.);
#318=EDGE_LOOP('',(#312,#314,#315,#317));
#319=FACE_OUTER_BOUND('',#318,.F.);
#320=ADVANCED_FACE('',(#319),#310,.T.);
#321=CARTESIAN_POINT('',(0.E0,2.5E1,0.E0));
#322=DIRECTION('',(0.E0,1.E0,0.E0));
#323=DIRECTION('',(1.E0,0.E0,0.E0));
#324=AXIS2_PLACEMENT_3D('',#321,#322,#323);
#325=PLANE('',#324);
#326=ORIENTED_EDGE('',*,*,#311,.F.);
#328=ORIENTED_EDGE('',*,*,#327,.F.);
#329=EDGE_LOOP('',(#326,#328));
#330=FACE_OUTER_BOUND('',#329,.F.);
#331=ADVANCED_FACE('',(#330),#325,.T.);
#332=CARTESIAN_POINT('',(4.3E1,2.4E1,0.E0));
#333=DIRECTION('',(0.E0,1.E0,0.E0));
#334=DIRECTION('',(-9.996113863666E-1,0.E0,-2.787608735391E-2));
#335=AXIS2_PLACEMENT_3D('',#332,#333,#334);
#336=TOROIDAL_SURFACE('',#335,4.E0,1.E0);
#337=ORIENTED_EDGE('',*,*,#327,.T.);
#338=ORIENTED_EDGE('',*,*,#316,.T.);
#340=ORIENTED_EDGE('',*,*,#339,.F.);
#341=ORIENTED_EDGE('',*,*,#313,.F.);
#342=EDGE_LOOP('',(#337,#338,#340,#341));
#343=FACE_OUTER_BOUND('',#342,.F.);
#344=ADVANCED_FACE('',(#343),#336,.T.);
#345=CARTESIAN_POINT('',(4.3E1,0.E0,0.E0));
#346=DIRECTION('',(0.E0,1.E0,0.E0));
#347=DIRECTION('',(1.E0,0.E0,0.E0));
#348=AXIS2_PLACEMENT_3D('',#345,#346,#347);
#349=CYLINDRICAL_SURFACE('',#348,5.E0);
#350=ORIENTED_EDGE('',*,*,#339,.T.);
#351=ORIENTED_EDGE('',*,*,#301,.F.);
#352=ORIENTED_EDGE('',*,*,#286,.F.);
#353=ORIENTED_EDGE('',*,*,#298,.T.);
#354=EDGE_LOOP('',(#350,#351,#352,#353));
#355=FACE_OUTER_BOUND('',#354,.F.);
#356=ADVANCED_FACE('',(#355),#349,.T.);
#357=CARTESIAN_POINT('',(5.E1,0.E0,0.E0));
#358=DIRECTION('',(1.E0,0.E0,0.E0));
#359=DIRECTION('',(0.E0,-1.467299919018E-2,-9.998923457527E-1));
#360=AXIS2_PLACEMENT_3D('',#357,#358,#359);
#361=TOROIDAL_SURFACE('',#360,8.5E0,1.E0);
#363=ORIENTED_EDGE('',*,*,#362,.T.);
#365=ORIENTED_EDGE('',*,*,#364,.T.);
#366=ORIENTED_EDGE('',*,*,#275,.F.);
#368=ORIENTED_EDGE('',*,*,#367,.F.);
#369=EDGE_LOOP('',(#363,#365,#366,#368));
#370=FACE_OUTER_BOUND('',#369,.F.);
#371=ADVANCED_FACE('',(#370),#361,.T.);
#372=CARTESIAN_POINT('',(5.1E1,0.E0,0.E0));
#373=DIRECTION('',(1.E0,0.E0,0.E0));
#374=DIRECTION('',(0.E0,0.E0,-1.E0));
#375=AXIS2_PLACEMENT_3D('',#372,#373,#374);
#376=PLANE('',#375);
#378=ORIENTED_EDGE('',*,*,#377,.F.);
#379=ORIENTED_EDGE('',*,*,#362,.F.);
#380=EDGE_LOOP('',(#378,#379));
#381=FACE_OUTER_BOUND('',#380,.F.);
#382=ADVANCED_FACE('',(#381),#376,.T.);
#383=CARTESIAN_POINT('',(5.E1,0.E0,0.E0));
#384=DIRECTION('',(1.E0,0.E0,0.E0));
#385=DIRECTION('',(0.E0,1.467299919018E-2,9.998923457527E-1));
#386=AXIS2_PLACEMENT_3D('',#383,#384,#385);
#387=TOROIDAL_SURFACE('',#386,8.5E0,1.E0);
#388=ORIENTED_EDGE('',*,*,#377,.T.);
#389=ORIENTED_EDGE('',*,*,#367,.T.);
#391=ORIENTED_EDGE('',*,*,#390,.F.);
#392=ORIENTED_EDGE('',*,*,#364,.F.);
#393=EDGE_LOOP('',(#388,#389,#391,#392));
#394=FACE_OUTER_BOUND('',#393,.F.);
#395=ADVANCED_FACE('',(#394),#387,.T.);
#396=CARTESIAN_POINT('',(1.2E1,0.E0,0.E0));
#397=DIRECTION('',(1.E0,0.E0,0.E0));
#398=DIRECTION('',(0.E0,0.E0,-1.E0));
#399=AXIS2_PLACEMENT_3D('',#396,#397,#398);
#400=CYLINDRICAL_SURFACE('',#399,9.5E0);
#401=ORIENTED_EDGE('',*,*,#390,.T.);
#402=ORIENTED_EDGE('',*,*,#280,.F.);
#403=ORIENTED_EDGE('',*,*,#265,.F.);
#404=ORIENTED_EDGE('',*,*,#277,.T.);
#405=EDGE_LOOP('',(#401,#402,#403,#404));
#406=FACE_OUTER_BOUND('',#405,.F.);
#407=ADVANCED_FACE('',(#406),#400,.T.);
#408=CARTESIAN_POINT('',(1.1E1,0.E0,0.E0));
#409=DIRECTION('',(1.E0,0.E0,0.E0));
#410=DIRECTION('',(0.E0,5.260296292132E-3,9.999861645457E-1));
#411=AXIS2_PLACEMENT_3D('',#408,#409,#410);
#412=TOROIDAL_SURFACE('',#411,2.55E1,1.E0);
#413=ORIENTED_EDGE('',*,*,#258,.T.);
#414=ORIENTED_EDGE('',*,*,#248,.T.);
#416=ORIENTED_EDGE('',*,*,#415,.F.);
#417=ORIENTED_EDGE('',*,*,#245,.F.);
#418=EDGE_LOOP('',(#413,#414,#416,#417));
#419=FACE_OUTER_BOUND('',#418,.F.);
#420=ADVANCED_FACE('',(#419),#412,.T.);
#421=CARTESIAN_POINT('',(0.E0,0.E0,0.E0));
#422=DIRECTION('',(1.E0,0.E0,0.E0));
#423=DIRECTION('',(0.E0,0.E0,-1.E0));
#424=AXIS2_PLACEMENT_3D('',#421,#422,#423);
#425=CYLINDRICAL_SURFACE('',#424,2.65E1);
#426=ORIENTED_EDGE('',*,*,#415,.T.);
#427=ORIENTED_EDGE('',*,*,#233,.F.);
#428=ORIENTED_EDGE('',*,*,#218,.F.);
#429=ORIENTED_EDGE('',*,*,#230,.T.);
#430=EDGE_LOOP('',(#426,#427,#428,#429));
#431=FACE_OUTER_BOUND('',#430,.F.);
#432=ADVANCED_FACE('',(#431),#425,.T.);
#433=CLOSED_SHELL('',(#222,#237,#252,#269,#290,#305,#320,#331,#344,#356,#371,
#382,#395,#407,#420,#432));
#434=MANIFOLD_SOLID_BREP('',#433);
#436=DIMENSIONAL_EXPONENTS(0.E0,0.E0,0.E0,0.E0,0.E0,0.E0,0.E0);
#438=PLANE_ANGLE_MEASURE_WITH_UNIT(PLANE_ANGLE_MEASURE(1.745329251994E-2),#437);
#439=(CONVERSION_BASED_UNIT('DEGREE',#438)NAMED_UNIT(*)PLANE_ANGLE_UNIT());
#441=UNCERTAINTY_MEASURE_WITH_UNIT(LENGTH_MEASURE(9.065507428242E-3),#435,
'closure',
'Maximum model space distance between geometric entities at asserted connectivities');
#442=(GEOMETRIC_REPRESENTATION_CONTEXT(3)GLOBAL_UNCERTAINTY_ASSIGNED_CONTEXT((
#441))GLOBAL_UNIT_ASSIGNED_CONTEXT((#435,#439,#440))REPRESENTATION_CONTEXT
('ID1','3'));
#444=APPLICATION_CONTEXT(
'CONFIGURATION CONTROLLED 3D DESIGNS OF MECHANICAL PARTS AND ASSEMBLIES');
#445=APPLICATION_PROTOCOL_DEFINITION('international standard',
'config_control_design',1994,#444);
#446=DESIGN_CONTEXT('',#444,'design');
#447=MECHANICAL_CONTEXT('',#444,'mechanical');
#448=PRODUCT('161','161','NOT SPECIFIED',(#447));
#449=PRODUCT_DEFINITION_FORMATION_WITH_SPECIFIED_SOURCE('1','LAST_VERSION',#448,
.MADE.);
#453=PRODUCT_CATEGORY('part','');
#454=PRODUCT_RELATED_PRODUCT_CATEGORY('detail','',(#448));
#455=PRODUCT_CATEGORY_RELATIONSHIP('','',#453,#454);
#456=SECURITY_CLASSIFICATION_LEVEL('unclassified');
#457=SECURITY_CLASSIFICATION('','',#456);
#458=CC_DESIGN_SECURITY_CLASSIFICATION(#457,(#449));
#459=APPROVAL_STATUS('approved');
#460=APPROVAL(#459,'');
#461=CC_DESIGN_APPROVAL(#460,(#457,#449,#450));
#462=CALENDAR_DATE(119,17,2);
#463=COORDINATED_UNIVERSAL_TIME_OFFSET(8,0,.AHEAD.);
#464=LOCAL_TIME(15,32,5.5E1,#463);
#465=DATE_AND_TIME(#462,#464);
#466=APPROVAL_DATE_TIME(#465,#460);
#467=DATE_TIME_ROLE('creation_date');
#468=CC_DESIGN_DATE_AND_TIME_ASSIGNMENT(#465,#467,(#450));
#469=DATE_TIME_ROLE('classification_date');
#470=CC_DESIGN_DATE_AND_TIME_ASSIGNMENT(#465,#469,(#457));
#471=PERSON('UNSPECIFIED','UNSPECIFIED',$,$,$,$);
#472=ORGANIZATION('UNSPECIFIED','UNSPECIFIED','UNSPECIFIED');
#473=PERSON_AND_ORGANIZATION(#471,#472);
#474=APPROVAL_ROLE('approver');
#475=APPROVAL_PERSON_ORGANIZATION(#473,#460,#474);
#476=PERSON_AND_ORGANIZATION_ROLE('creator');
#477=CC_DESIGN_PERSON_AND_ORGANIZATION_ASSIGNMENT(#473,#476,(#449,#450));
#478=PERSON_AND_ORGANIZATION_ROLE('design_supplier');
#479=CC_DESIGN_PERSON_AND_ORGANIZATION_ASSIGNMENT(#473,#478,(#449));
#480=PERSON_AND_ORGANIZATION_ROLE('classification_officer');
#481=CC_DESIGN_PERSON_AND_ORGANIZATION_ASSIGNMENT(#473,#480,(#457));
#482=PERSON_AND_ORGANIZATION_ROLE('design_owner');
#483=CC_DESIGN_PERSON_AND_ORGANIZATION_ASSIGNMENT(#473,#482,(#448));
#5=CIRCLE('',#4,2.65E1);
#10=CIRCLE('',#9,2.65E1);
#15=CIRCLE('',#14,2.65E1);
#24=CIRCLE('',#23,1.E0);
#29=CIRCLE('',#28,9.5E0);
#34=CIRCLE('',#33,9.5E0);
#39=CIRCLE('',#38,2.55E1);
#44=CIRCLE('',#43,2.55E1);
#65=B_SPLINE_CURVE_WITH_KNOTS('',3,(#45,#46,#47,#48,#49,#50,#51,#52,#53,#54,#55,
#56,#57,#58,#59,#60,#61,#62,#63,#64),.UNSPECIFIED.,.F.,.F.,(4,1,1,1,1,1,1,1,1,1,
1,1,1,1,1,1,1,4),(0.E0,5.882352941176E-2,1.176470588235E-1,1.764705882353E-1,
2.352941176471E-1,2.941176470588E-1,3.529411764706E-1,4.117647058824E-1,
4.705882352941E-1,5.294117647059E-1,5.882352941176E-1,6.470588235294E-1,
7.058823529412E-1,7.647058823529E-1,8.235294117647E-1,8.823529411765E-1,
9.411764705882E-1,1.E0),.UNSPECIFIED.);
#86=B_SPLINE_CURVE_WITH_KNOTS('',3,(#66,#67,#68,#69,#70,#71,#72,#73,#74,#75,#76,
#77,#78,#79,#80,#81,#82,#83,#84,#85),.UNSPECIFIED.,.F.,.F.,(4,1,1,1,1,1,1,1,1,1,
1,1,1,1,1,1,1,4),(0.E0,5.882352941176E-2,1.176470588235E-1,1.764705882353E-1,
2.352941176471E-1,2.941176470588E-1,3.529411764706E-1,4.117647058824E-1,
4.705882352941E-1,5.294117647059E-1,5.882352941176E-1,6.470588235294E-1,
7.058823529412E-1,7.647058823529E-1,8.235294117647E-1,8.823529411765E-1,
9.411764705882E-1,1.E0),.UNSPECIFIED.);
#91=CIRCLE('',#90,9.5E0);
#100=CIRCLE('',#99,5.E0);
#109=CIRCLE('',#108,1.E0);
#114=CIRCLE('',#113,4.E0);
#119=CIRCLE('',#118,4.E0);
#124=CIRCLE('',#123,1.E0);
#129=CIRCLE('',#128,5.E0);
#138=CIRCLE('',#137,1.E0);
#143=CIRCLE('',#142,8.5E0);
#148=CIRCLE('',#147,8.5E0);
#153=CIRCLE('',#152,1.E0);
#158=CIRCLE('',#157,9.5E0);
#167=CIRCLE('',#166,1.E0);
#172=CIRCLE('',#171,2.65E1);
#216=EDGE_CURVE('',#179,#180,#5,.T.);
#218=EDGE_CURVE('',#180,#179,#10,.T.);
#228=EDGE_CURVE('',#194,#193,#15,.T.);
#230=EDGE_CURVE('',#180,#193,#176,.T.);
#233=EDGE_CURVE('',#179,#194,#19,.T.);
#243=EDGE_CURVE('',#190,#189,#44,.T.);
#245=EDGE_CURVE('',#189,#193,#167,.T.);
#248=EDGE_CURVE('',#190,#194,#24,.T.);
#258=EDGE_CURVE('',#189,#190,#39,.T.);
#263=EDGE_CURVE('',#183,#184,#29,.T.);
#265=EDGE_CURVE('',#184,#183,#34,.T.);
#275=EDGE_CURVE('',#202,#201,#91,.T.);
#277=EDGE_CURVE('',#184,#201,#162,.T.);
#280=EDGE_CURVE('',#183,#202,#95,.T.);
#284=EDGE_CURVE('',#185,#186,#65,.T.);
#286=EDGE_CURVE('',#186,#185,#86,.T.);
#296=EDGE_CURVE('',#209,#210,#100,.T.);
#298=EDGE_CURVE('',#186,#210,#133,.T.);
#301=EDGE_CURVE('',#185,#209,#104,.T.);
#311=EDGE_CURVE('',#205,#206,#114,.T.);
#313=EDGE_CURVE('',#206,#210,#124,.T.);
#316=EDGE_CURVE('',#205,#209,#109,.T.);
#327=EDGE_CURVE('',#206,#205,#119,.T.);
#339=EDGE_CURVE('',#210,#209,#129,.T.);
#362=EDGE_CURVE('',#198,#197,#148,.T.);
#364=EDGE_CURVE('',#197,#201,#153,.T.);
#367=EDGE_CURVE('',#198,#202,#138,.T.);
#377=EDGE_CURVE('',#197,#198,#143,.T.);
#390=EDGE_CURVE('',#201,#202,#158,.T.);
#415=EDGE_CURVE('',#193,#194,#172,.T.);
#435=(LENGTH_UNIT()NAMED_UNIT(*)SI_UNIT(.MILLI.,.METRE.));
#437=(NAMED_UNIT(*)PLANE_ANGLE_UNIT()SI_UNIT($,.RADIAN.));
#440=(NAMED_UNIT(*)SI_UNIT($,.STERADIAN.)SOLID_ANGLE_UNIT());
#443=ADVANCED_BREP_SHAPE_REPRESENTATION('',(#434),#442);
#450=PRODUCT_DEFINITION('design','',#449,#446);
#451=PRODUCT_DEFINITION_SHAPE('','SHAPE FOR 161.',#450);
#452=SHAPE_DEFINITION_REPRESENTATION(#451,#443);
ENDSEC;
END-ISO-10303-21;
