ISO-10303-21;
HEADER;
FILE_DESCRIPTION((''),'2;1');
FILE_NAME('433','2018-07-29T',('MQ'),(''),
'PRO/ENGINEER BY PARAMETRIC TECHNOLOGY CORPORATION, 2012130',
'PRO/ENGINEER BY PARAMETRIC TECHNOLOGY CORPORATION, 2012130','');
FILE_SCHEMA(('CONFIG_CONTROL_DESIGN'));
ENDSEC;
DATA;
#1=CARTESIAN_POINT('',(0.E0,0.E0,0.E0));
#2=DIRECTION('',(1.E0,0.E0,0.E0));
#3=DIRECTION('',(0.E0,0.E0,-1.E0));
#4=AXIS2_PLACEMENT_3D('',#1,#2,#3);
#6=CARTESIAN_POINT('',(0.E0,0.E0,0.E0));
#7=DIRECTION('',(1.E0,0.E0,0.E0));
#8=DIRECTION('',(0.E0,0.E0,1.E0));
#9=AXIS2_PLACEMENT_3D('',#6,#7,#8);
#11=CARTESIAN_POINT('',(0.E0,0.E0,0.E0));
#12=DIRECTION('',(-1.E0,0.E0,0.E0));
#13=DIRECTION('',(0.E0,0.E0,-1.E0));
#14=AXIS2_PLACEMENT_3D('',#11,#12,#13);
#16=CARTESIAN_POINT('',(0.E0,0.E0,0.E0));
#17=DIRECTION('',(-1.E0,0.E0,0.E0));
#18=DIRECTION('',(0.E0,0.E0,1.E0));
#19=AXIS2_PLACEMENT_3D('',#16,#17,#18);
#21=CARTESIAN_POINT('',(7.E0,0.E0,0.E0));
#22=DIRECTION('',(1.E0,0.E0,0.E0));
#23=DIRECTION('',(0.E0,0.E0,-1.E0));
#24=AXIS2_PLACEMENT_3D('',#21,#22,#23);
#26=DIRECTION('',(1.E0,-1.124595011341E-11,0.E0));
#27=VECTOR('',#26,7.E0);
#28=CARTESIAN_POINT('',(0.E0,0.E0,-4.E1));
#29=LINE('',#28,#27);
#30=CARTESIAN_POINT('',(7.E0,1.193489751472E-14,-3.9E1));
#31=DIRECTION('',(0.E0,1.E0,0.E0));
#32=DIRECTION('',(1.E0,0.E0,0.E0));
#33=AXIS2_PLACEMENT_3D('',#30,#31,#32);
#35=CARTESIAN_POINT('',(8.E0,0.E0,0.E0));
#36=DIRECTION('',(-1.E0,0.E0,0.E0));
#37=DIRECTION('',(0.E0,0.E0,-1.E0));
#38=AXIS2_PLACEMENT_3D('',#35,#36,#37);
#40=CARTESIAN_POINT('',(8.E0,0.E0,0.E0));
#41=DIRECTION('',(-1.E0,0.E0,0.E0));
#42=DIRECTION('',(0.E0,0.E0,1.E0));
#43=AXIS2_PLACEMENT_3D('',#40,#41,#42);
#45=CARTESIAN_POINT('',(8.E0,0.E0,0.E0));
#46=DIRECTION('',(1.E0,0.E0,0.E0));
#47=DIRECTION('',(0.E0,0.E0,1.E0));
#48=AXIS2_PLACEMENT_3D('',#45,#46,#47);
#50=CARTESIAN_POINT('',(8.E0,0.E0,0.E0));
#51=DIRECTION('',(1.E0,0.E0,0.E0));
#52=DIRECTION('',(0.E0,0.E0,-1.E0));
#53=AXIS2_PLACEMENT_3D('',#50,#51,#52);
#55=DIRECTION('',(1.E0,0.E0,0.E0));
#56=VECTOR('',#55,8.E0);
#57=CARTESIAN_POINT('',(0.E0,0.E0,-1.275E1));
#58=LINE('',#57,#56);
#59=DIRECTION('',(1.E0,0.E0,0.E0));
#60=VECTOR('',#59,8.E0);
#61=CARTESIAN_POINT('',(0.E0,0.E0,1.275E1));
#62=LINE('',#61,#60);
#63=CARTESIAN_POINT('',(7.E0,2.209343819004E-14,3.9E1));
#64=DIRECTION('',(0.E0,-1.E0,0.E0));
#65=DIRECTION('',(1.E0,0.E0,0.E0));
#66=AXIS2_PLACEMENT_3D('',#63,#64,#65);
#68=CARTESIAN_POINT('',(7.E0,0.E0,0.E0));
#69=DIRECTION('',(1.E0,0.E0,0.E0));
#70=DIRECTION('',(0.E0,0.E0,1.E0));
#71=AXIS2_PLACEMENT_3D('',#68,#69,#70);
#73=DIRECTION('',(1.E0,1.124593971478E-11,0.E0));
#74=VECTOR('',#73,7.E0);
#75=CARTESIAN_POINT('',(0.E0,0.E0,4.E1));
#76=LINE('',#75,#74);
#77=CARTESIAN_POINT('',(0.E0,0.E0,-4.E1));
#78=CARTESIAN_POINT('',(0.E0,0.E0,4.E1));
#79=VERTEX_POINT('',#77);
#80=VERTEX_POINT('',#78);
#81=CARTESIAN_POINT('',(0.E0,0.E0,-1.275E1));
#82=CARTESIAN_POINT('',(0.E0,0.E0,1.275E1));
#83=VERTEX_POINT('',#81);
#84=VERTEX_POINT('',#82);
#85=CARTESIAN_POINT('',(8.E0,0.E0,-1.275E1));
#86=CARTESIAN_POINT('',(8.E0,0.E0,1.275E1));
#87=VERTEX_POINT('',#85);
#88=VERTEX_POINT('',#86);
#89=CARTESIAN_POINT('',(8.E0,0.E0,3.9E1));
#90=CARTESIAN_POINT('',(8.E0,0.E0,-3.9E1));
#91=VERTEX_POINT('',#89);
#92=VERTEX_POINT('',#90);
#93=CARTESIAN_POINT('',(7.E0,0.E0,4.E1));
#94=CARTESIAN_POINT('',(7.E0,0.E0,-4.E1));
#95=VERTEX_POINT('',#93);
#96=VERTEX_POINT('',#94);
#97=CARTESIAN_POINT('',(0.E0,0.E0,0.E0));
#98=DIRECTION('',(1.E0,0.E0,0.E0));
#99=DIRECTION('',(0.E0,0.E0,-1.E0));
#100=AXIS2_PLACEMENT_3D('',#97,#98,#99);
#101=PLANE('',#100);
#103=ORIENTED_EDGE('',*,*,#102,.T.);
#105=ORIENTED_EDGE('',*,*,#104,.T.);
#106=EDGE_LOOP('',(#103,#105));
#107=FACE_OUTER_BOUND('',#106,.F.);
#109=ORIENTED_EDGE('',*,*,#108,.T.);
#111=ORIENTED_EDGE('',*,*,#110,.T.);
#112=EDGE_LOOP('',(#109,#111));
#113=FACE_BOUND('',#112,.F.);
#114=ADVANCED_FACE('',(#107,#113),#101,.F.);
#115=CARTESIAN_POINT('',(0.E0,0.E0,0.E0));
#116=DIRECTION('',(1.E0,0.E0,0.E0));
#117=DIRECTION('',(0.E0,0.E0,-1.E0));
#118=AXIS2_PLACEMENT_3D('',#115,#116,#117);
#119=CYLINDRICAL_SURFACE('',#118,4.E1);
#121=ORIENTED_EDGE('',*,*,#120,.T.);
#123=ORIENTED_EDGE('',*,*,#122,.F.);
#124=ORIENTED_EDGE('',*,*,#102,.F.);
#126=ORIENTED_EDGE('',*,*,#125,.T.);
#127=EDGE_LOOP('',(#121,#123,#124,#126));
#128=FACE_OUTER_BOUND('',#127,.F.);
#129=ADVANCED_FACE('',(#128),#119,.T.);
#130=CARTESIAN_POINT('',(7.E0,0.E0,0.E0));
#131=DIRECTION('',(1.E0,0.E0,0.E0));
#132=DIRECTION('',(0.E0,-1.155973295011E-2,-9.999331840549E-1));
#133=AXIS2_PLACEMENT_3D('',#130,#131,#132);
#134=TOROIDAL_SURFACE('',#133,3.9E1,1.E0);
#136=ORIENTED_EDGE('',*,*,#135,.T.);
#138=ORIENTED_EDGE('',*,*,#137,.T.);
#139=ORIENTED_EDGE('',*,*,#120,.F.);
#141=ORIENTED_EDGE('',*,*,#140,.F.);
#142=EDGE_LOOP('',(#136,#138,#139,#141));
#143=FACE_OUTER_BOUND('',#142,.F.);
#144=ADVANCED_FACE('',(#143),#134,.T.);
#145=CARTESIAN_POINT('',(8.E0,0.E0,0.E0));
#146=DIRECTION('',(1.E0,0.E0,0.E0));
#147=DIRECTION('',(0.E0,0.E0,-1.E0));
#148=AXIS2_PLACEMENT_3D('',#145,#146,#147);
#149=PLANE('',#148);
#151=ORIENTED_EDGE('',*,*,#150,.F.);
#152=ORIENTED_EDGE('',*,*,#135,.F.);
#153=EDGE_LOOP('',(#151,#152));
#154=FACE_OUTER_BOUND('',#153,.F.);
#156=ORIENTED_EDGE('',*,*,#155,.F.);
#158=ORIENTED_EDGE('',*,*,#157,.F.);
#159=EDGE_LOOP('',(#156,#158));
#160=FACE_BOUND('',#159,.F.);
#161=ADVANCED_FACE('',(#154,#160),#149,.T.);
#162=CARTESIAN_POINT('',(0.E0,0.E0,0.E0));
#163=DIRECTION('',(1.E0,0.E0,0.E0));
#164=DIRECTION('',(0.E0,0.E0,-1.E0));
#165=AXIS2_PLACEMENT_3D('',#162,#163,#164);
#166=CYLINDRICAL_SURFACE('',#165,1.275E1);
#167=ORIENTED_EDGE('',*,*,#108,.F.);
#169=ORIENTED_EDGE('',*,*,#168,.T.);
#170=ORIENTED_EDGE('',*,*,#155,.T.);
#172=ORIENTED_EDGE('',*,*,#171,.F.);
#173=EDGE_LOOP('',(#167,#169,#170,#172));
#174=FACE_OUTER_BOUND('',#173,.F.);
#175=ADVANCED_FACE('',(#174),#166,.F.);
#176=CARTESIAN_POINT('',(0.E0,0.E0,0.E0));
#177=DIRECTION('',(1.E0,0.E0,0.E0));
#178=DIRECTION('',(0.E0,0.E0,-1.E0));
#179=AXIS2_PLACEMENT_3D('',#176,#177,#178);
#180=CYLINDRICAL_SURFACE('',#179,1.275E1);
#181=ORIENTED_EDGE('',*,*,#110,.F.);
#182=ORIENTED_EDGE('',*,*,#171,.T.);
#183=ORIENTED_EDGE('',*,*,#157,.T.);
#184=ORIENTED_EDGE('',*,*,#168,.F.);
#185=EDGE_LOOP('',(#181,#182,#183,#184));
#186=FACE_OUTER_BOUND('',#185,.F.);
#187=ADVANCED_FACE('',(#186),#180,.F.);
#188=CARTESIAN_POINT('',(7.E0,0.E0,0.E0));
#189=DIRECTION('',(1.E0,0.E0,0.E0));
#190=DIRECTION('',(0.E0,1.155973295011E-2,9.999331840549E-1));
#191=AXIS2_PLACEMENT_3D('',#188,#189,#190);
#192=TOROIDAL_SURFACE('',#191,3.9E1,1.E0);
#193=ORIENTED_EDGE('',*,*,#150,.T.);
#194=ORIENTED_EDGE('',*,*,#140,.T.);
#196=ORIENTED_EDGE('',*,*,#195,.F.);
#197=ORIENTED_EDGE('',*,*,#137,.F.);
#198=EDGE_LOOP('',(#193,#194,#196,#197));
#199=FACE_OUTER_BOUND('',#198,.F.);
#200=ADVANCED_FACE('',(#199),#192,.T.);
#201=CARTESIAN_POINT('',(0.E0,0.E0,0.E0));
#202=DIRECTION('',(1.E0,0.E0,0.E0));
#203=DIRECTION('',(0.E0,0.E0,-1.E0));
#204=AXIS2_PLACEMENT_3D('',#201,#202,#203);
#205=CYLINDRICAL_SURFACE('',#204,4.E1);
#206=ORIENTED_EDGE('',*,*,#195,.T.);
#207=ORIENTED_EDGE('',*,*,#125,.F.);
#208=ORIENTED_EDGE('',*,*,#104,.F.);
#209=ORIENTED_EDGE('',*,*,#122,.T.);
#210=EDGE_LOOP('',(#206,#207,#208,#209));
#211=FACE_OUTER_BOUND('',#210,.F.);
#212=ADVANCED_FACE('',(#211),#205,.T.);
#213=CLOSED_SHELL('',(#114,#129,#144,#161,#175,#187,#200,#212));
#214=MANIFOLD_SOLID_BREP('',#213);
#215=CARTESIAN_POINT('',(2.5E2,-8.3E1,0.E0));
#216=DIRECTION('',(0.E0,1.E0,0.E0));
#217=DIRECTION('',(-1.E0,0.E0,0.E0));
#218=AXIS2_PLACEMENT_3D('',#215,#216,#217);
#220=CARTESIAN_POINT('',(2.5E2,-8.3E1,0.E0));
#221=DIRECTION('',(0.E0,1.E0,0.E0));
#222=DIRECTION('',(1.E0,0.E0,0.E0));
#223=AXIS2_PLACEMENT_3D('',#220,#221,#222);
#225=DIRECTION('',(0.E0,1.E0,0.E0));
#226=VECTOR('',#225,5.E1);
#227=CARTESIAN_POINT('',(2.375E2,-8.3E1,0.E0));
#228=LINE('',#227,#226);
#229=DIRECTION('',(0.E0,1.E0,0.E0));
#230=VECTOR('',#229,5.E1);
#231=CARTESIAN_POINT('',(2.625E2,-8.3E1,0.E0));
#232=LINE('',#231,#230);
#233=CARTESIAN_POINT('',(2.5E2,-3.3E1,0.E0));
#234=DIRECTION('',(0.E0,1.E0,0.E0));
#235=DIRECTION('',(1.E0,0.E0,0.E0));
#236=AXIS2_PLACEMENT_3D('',#233,#234,#235);
#238=CARTESIAN_POINT('',(2.17E2,-3.3E1,0.E0));
#239=DIRECTION('',(0.E0,0.E0,1.E0));
#240=DIRECTION('',(1.E0,0.E0,0.E0));
#241=AXIS2_PLACEMENT_3D('',#238,#239,#240);
#243=CARTESIAN_POINT('',(2.5E2,-3.3E1,0.E0));
#244=DIRECTION('',(0.E0,1.E0,0.E0));
#245=DIRECTION('',(-1.E0,0.E0,0.E0));
#246=AXIS2_PLACEMENT_3D('',#243,#244,#245);
#248=CARTESIAN_POINT('',(2.17E2,-3.3E1,0.E0));
#249=DIRECTION('',(0.E0,0.E0,1.E0));
#250=DIRECTION('',(1.E0,0.E0,0.E0));
#251=AXIS2_PLACEMENT_3D('',#248,#249,#250);
#253=CARTESIAN_POINT('',(2.17E2,0.E0,0.E0));
#254=DIRECTION('',(-1.E0,0.E0,0.E0));
#255=DIRECTION('',(0.E0,-1.E0,0.E0));
#256=AXIS2_PLACEMENT_3D('',#253,#254,#255);
#258=DIRECTION('',(-1.E0,0.E0,0.E0));
#259=VECTOR('',#258,2.17E2);
#260=CARTESIAN_POINT('',(2.17E2,-1.25E1,0.E0));
#261=LINE('',#260,#259);
#262=CARTESIAN_POINT('',(2.17E2,0.E0,0.E0));
#263=DIRECTION('',(-1.E0,0.E0,0.E0));
#264=DIRECTION('',(0.E0,1.E0,0.E0));
#265=AXIS2_PLACEMENT_3D('',#262,#263,#264);
#267=DIRECTION('',(-1.E0,0.E0,0.E0));
#268=VECTOR('',#267,2.17E2);
#269=CARTESIAN_POINT('',(2.17E2,1.25E1,0.E0));
#270=LINE('',#269,#268);
#271=CARTESIAN_POINT('',(0.E0,0.E0,0.E0));
#272=DIRECTION('',(-1.E0,0.E0,0.E0));
#273=DIRECTION('',(0.E0,-1.E0,0.E0));
#274=AXIS2_PLACEMENT_3D('',#271,#272,#273);
#276=CARTESIAN_POINT('',(0.E0,0.E0,0.E0));
#277=DIRECTION('',(-1.E0,0.E0,0.E0));
#278=DIRECTION('',(0.E0,1.E0,0.E0));
#279=AXIS2_PLACEMENT_3D('',#276,#277,#278);
#281=CARTESIAN_POINT('',(2.375E2,-8.3E1,0.E0));
#282=CARTESIAN_POINT('',(2.625E2,-8.3E1,0.E0));
#283=VERTEX_POINT('',#281);
#284=VERTEX_POINT('',#282);
#285=CARTESIAN_POINT('',(2.375E2,-3.3E1,0.E0));
#286=CARTESIAN_POINT('',(2.625E2,-3.3E1,0.E0));
#287=VERTEX_POINT('',#285);
#288=VERTEX_POINT('',#286);
#289=CARTESIAN_POINT('',(2.17E2,-1.25E1,0.E0));
#290=CARTESIAN_POINT('',(2.17E2,1.25E1,0.E0));
#291=VERTEX_POINT('',#289);
#292=VERTEX_POINT('',#290);
#293=CARTESIAN_POINT('',(0.E0,-1.25E1,0.E0));
#294=CARTESIAN_POINT('',(0.E0,1.25E1,0.E0));
#295=VERTEX_POINT('',#293);
#296=VERTEX_POINT('',#294);
#297=CARTESIAN_POINT('',(2.5E2,-8.3E1,0.E0));
#298=DIRECTION('',(0.E0,1.E0,0.E0));
#299=DIRECTION('',(-1.E0,0.E0,0.E0));
#300=AXIS2_PLACEMENT_3D('',#297,#298,#299);
#301=PLANE('',#300);
#303=ORIENTED_EDGE('',*,*,#302,.T.);
#305=ORIENTED_EDGE('',*,*,#304,.T.);
#306=EDGE_LOOP('',(#303,#305));
#307=FACE_OUTER_BOUND('',#306,.F.);
#308=ADVANCED_FACE('',(#307),#301,.F.);
#309=CARTESIAN_POINT('',(2.5E2,-8.3E1,0.E0));
#310=DIRECTION('',(0.E0,1.E0,0.E0));
#311=DIRECTION('',(-1.E0,0.E0,0.E0));
#312=AXIS2_PLACEMENT_3D('',#309,#310,#311);
#313=CYLINDRICAL_SURFACE('',#312,1.25E1);
#314=ORIENTED_EDGE('',*,*,#302,.F.);
#316=ORIENTED_EDGE('',*,*,#315,.T.);
#318=ORIENTED_EDGE('',*,*,#317,.T.);
#320=ORIENTED_EDGE('',*,*,#319,.F.);
#321=EDGE_LOOP('',(#314,#316,#318,#320));
#322=FACE_OUTER_BOUND('',#321,.F.);
#323=ADVANCED_FACE('',(#322),#313,.T.);
#324=CARTESIAN_POINT('',(2.5E2,-8.3E1,0.E0));
#325=DIRECTION('',(0.E0,1.E0,0.E0));
#326=DIRECTION('',(-1.E0,0.E0,0.E0));
#327=AXIS2_PLACEMENT_3D('',#324,#325,#326);
#328=CYLINDRICAL_SURFACE('',#327,1.25E1);
#329=ORIENTED_EDGE('',*,*,#304,.F.);
#330=ORIENTED_EDGE('',*,*,#319,.T.);
#332=ORIENTED_EDGE('',*,*,#331,.T.);
#333=ORIENTED_EDGE('',*,*,#315,.F.);
#334=EDGE_LOOP('',(#329,#330,#332,#333));
#335=FACE_OUTER_BOUND('',#334,.F.);
#336=ADVANCED_FACE('',(#335),#328,.T.);
#337=CARTESIAN_POINT('',(2.17E2,-3.3E1,0.E0));
#338=DIRECTION('',(0.E0,0.E0,1.E0));
#339=DIRECTION('',(-1.E0,0.E0,0.E0));
#340=AXIS2_PLACEMENT_3D('',#337,#338,#339);
#341=TOROIDAL_SURFACE('',#340,3.3E1,1.25E1);
#342=ORIENTED_EDGE('',*,*,#331,.F.);
#344=ORIENTED_EDGE('',*,*,#343,.T.);
#346=ORIENTED_EDGE('',*,*,#345,.T.);
#348=ORIENTED_EDGE('',*,*,#347,.F.);
#349=EDGE_LOOP('',(#342,#344,#346,#348));
#350=FACE_OUTER_BOUND('',#349,.F.);
#351=ADVANCED_FACE('',(#350),#341,.T.);
#352=CARTESIAN_POINT('',(2.17E2,-3.3E1,0.E0));
#353=DIRECTION('',(0.E0,0.E0,1.E0));
#354=DIRECTION('',(-1.E0,0.E0,0.E0));
#355=AXIS2_PLACEMENT_3D('',#352,#353,#354);
#356=TOROIDAL_SURFACE('',#355,3.3E1,1.25E1);
#357=ORIENTED_EDGE('',*,*,#317,.F.);
#358=ORIENTED_EDGE('',*,*,#347,.T.);
#360=ORIENTED_EDGE('',*,*,#359,.T.);
#361=ORIENTED_EDGE('',*,*,#343,.F.);
#362=EDGE_LOOP('',(#357,#358,#360,#361));
#363=FACE_OUTER_BOUND('',#362,.F.);
#364=ADVANCED_FACE('',(#363),#356,.T.);
#365=CARTESIAN_POINT('',(2.17E2,0.E0,0.E0));
#366=DIRECTION('',(-1.E0,0.E0,0.E0));
#367=DIRECTION('',(0.E0,-1.E0,0.E0));
#368=AXIS2_PLACEMENT_3D('',#365,#366,#367);
#369=CYLINDRICAL_SURFACE('',#368,1.25E1);
#370=ORIENTED_EDGE('',*,*,#359,.F.);
#372=ORIENTED_EDGE('',*,*,#371,.T.);
#374=ORIENTED_EDGE('',*,*,#373,.T.);
#376=ORIENTED_EDGE('',*,*,#375,.F.);
#377=EDGE_LOOP('',(#370,#372,#374,#376));
#378=FACE_OUTER_BOUND('',#377,.F.);
#379=ADVANCED_FACE('',(#378),#369,.T.);
#380=CARTESIAN_POINT('',(2.17E2,0.E0,0.E0));
#381=DIRECTION('',(-1.E0,0.E0,0.E0));
#382=DIRECTION('',(0.E0,-1.E0,0.E0));
#383=AXIS2_PLACEMENT_3D('',#380,#381,#382);
#384=CYLINDRICAL_SURFACE('',#383,1.25E1);
#385=ORIENTED_EDGE('',*,*,#345,.F.);
#386=ORIENTED_EDGE('',*,*,#375,.T.);
#388=ORIENTED_EDGE('',*,*,#387,.T.);
#389=ORIENTED_EDGE('',*,*,#371,.F.);
#390=EDGE_LOOP('',(#385,#386,#388,#389));
#391=FACE_OUTER_BOUND('',#390,.F.);
#392=ADVANCED_FACE('',(#391),#384,.T.);
#393=CARTESIAN_POINT('',(0.E0,0.E0,0.E0));
#394=DIRECTION('',(-1.E0,0.E0,0.E0));
#395=DIRECTION('',(0.E0,-1.E0,0.E0));
#396=AXIS2_PLACEMENT_3D('',#393,#394,#395);
#397=PLANE('',#396);
#398=ORIENTED_EDGE('',*,*,#373,.F.);
#399=ORIENTED_EDGE('',*,*,#387,.F.);
#400=EDGE_LOOP('',(#398,#399));
#401=FACE_OUTER_BOUND('',#400,.F.);
#402=ADVANCED_FACE('',(#401),#397,.T.);
#403=CLOSED_SHELL('',(#308,#323,#336,#351,#364,#379,#392,#402));
#404=MANIFOLD_SOLID_BREP('',#403);
#405=DIMENSIONAL_EXPONENTS(1.E0,0.E0,0.E0,0.E0,0.E0,0.E0,0.E0);
#407=LENGTH_MEASURE_WITH_UNIT(LENGTH_MEASURE(2.54E1),#406);
#408=(CONVERSION_BASED_UNIT('INCH',#407)LENGTH_UNIT()NAMED_UNIT(#405));
#409=DIMENSIONAL_EXPONENTS(0.E0,0.E0,0.E0,0.E0,0.E0,0.E0,0.E0);
#411=PLANE_ANGLE_MEASURE_WITH_UNIT(PLANE_ANGLE_MEASURE(1.745329251994E-2),#410);
#412=(CONVERSION_BASED_UNIT('DEGREE',#411)NAMED_UNIT(*)PLANE_ANGLE_UNIT());
#414=UNCERTAINTY_MEASURE_WITH_UNIT(LENGTH_MEASURE(3.007125127505E-2),#408,
'closure',
'Maximum model space distance between geometric entities at asserted connectivities');
#415=(GEOMETRIC_REPRESENTATION_CONTEXT(3)GLOBAL_UNCERTAINTY_ASSIGNED_CONTEXT((
#414))GLOBAL_UNIT_ASSIGNED_CONTEXT((#408,#412,#413))REPRESENTATION_CONTEXT
('ID1','3'));
#417=APPLICATION_CONTEXT(
'CONFIGURATION CONTROLLED 3D DESIGNS OF MECHANICAL PARTS AND ASSEMBLIES');
#418=APPLICATION_PROTOCOL_DEFINITION('international standard',
'config_control_design',1994,#417);
#419=DESIGN_CONTEXT('',#417,'design');
#420=MECHANICAL_CONTEXT('',#417,'mechanical');
#421=PRODUCT('433','433','NOT SPECIFIED',(#420));
#422=PRODUCT_DEFINITION_FORMATION_WITH_SPECIFIED_SOURCE('2','LAST_VERSION',#421,
.MADE.);
#426=PRODUCT_CATEGORY('part','');
#427=PRODUCT_RELATED_PRODUCT_CATEGORY('detail','',(#421));
#428=PRODUCT_CATEGORY_RELATIONSHIP('','',#426,#427);
#429=SECURITY_CLASSIFICATION_LEVEL('unclassified');
#430=SECURITY_CLASSIFICATION('','',#429);
#431=CC_DESIGN_SECURITY_CLASSIFICATION(#430,(#422));
#432=APPROVAL_STATUS('approved');
#433=APPROVAL(#432,'');
#434=CC_DESIGN_APPROVAL(#433,(#430,#422,#423));
#435=CALENDAR_DATE(118,29,7);
#436=COORDINATED_UNIVERSAL_TIME_OFFSET(8,0,.AHEAD.);
#437=LOCAL_TIME(20,53,1.1E1,#436);
#438=DATE_AND_TIME(#435,#437);
#439=APPROVAL_DATE_TIME(#438,#433);
#440=DATE_TIME_ROLE('creation_date');
#441=CC_DESIGN_DATE_AND_TIME_ASSIGNMENT(#438,#440,(#423));
#442=DATE_TIME_ROLE('classification_date');
#443=CC_DESIGN_DATE_AND_TIME_ASSIGNMENT(#438,#442,(#430));
#444=PERSON('UNSPECIFIED','UNSPECIFIED',$,$,$,$);
#445=ORGANIZATION('UNSPECIFIED','UNSPECIFIED','UNSPECIFIED');
#446=PERSON_AND_ORGANIZATION(#444,#445);
#447=APPROVAL_ROLE('approver');
#448=APPROVAL_PERSON_ORGANIZATION(#446,#433,#447);
#449=PERSON_AND_ORGANIZATION_ROLE('creator');
#450=CC_DESIGN_PERSON_AND_ORGANIZATION_ASSIGNMENT(#446,#449,(#422,#423));
#451=PERSON_AND_ORGANIZATION_ROLE('design_supplier');
#452=CC_DESIGN_PERSON_AND_ORGANIZATION_ASSIGNMENT(#446,#451,(#422));
#453=PERSON_AND_ORGANIZATION_ROLE('classification_officer');
#454=CC_DESIGN_PERSON_AND_ORGANIZATION_ASSIGNMENT(#446,#453,(#430));
#455=PERSON_AND_ORGANIZATION_ROLE('design_owner');
#456=CC_DESIGN_PERSON_AND_ORGANIZATION_ASSIGNMENT(#446,#455,(#421));
#5=CIRCLE('',#4,4.E1);
#10=CIRCLE('',#9,4.E1);
#15=CIRCLE('',#14,1.275E1);
#20=CIRCLE('',#19,1.275E1);
#25=CIRCLE('',#24,4.E1);
#34=CIRCLE('',#33,1.E0);
#39=CIRCLE('',#38,1.275E1);
#44=CIRCLE('',#43,1.275E1);
#49=CIRCLE('',#48,3.9E1);
#54=CIRCLE('',#53,3.9E1);
#67=CIRCLE('',#66,1.E0);
#72=CIRCLE('',#71,4.E1);
#102=EDGE_CURVE('',#79,#80,#5,.T.);
#104=EDGE_CURVE('',#80,#79,#10,.T.);
#108=EDGE_CURVE('',#83,#84,#15,.T.);
#110=EDGE_CURVE('',#84,#83,#20,.T.);
#120=EDGE_CURVE('',#96,#95,#25,.T.);
#122=EDGE_CURVE('',#80,#95,#76,.T.);
#125=EDGE_CURVE('',#79,#96,#29,.T.);
#135=EDGE_CURVE('',#92,#91,#54,.T.);
#137=EDGE_CURVE('',#91,#95,#67,.T.);
#140=EDGE_CURVE('',#92,#96,#34,.T.);
#150=EDGE_CURVE('',#91,#92,#49,.T.);
#155=EDGE_CURVE('',#87,#88,#39,.T.);
#157=EDGE_CURVE('',#88,#87,#44,.T.);
#168=EDGE_CURVE('',#83,#87,#58,.T.);
#171=EDGE_CURVE('',#84,#88,#62,.T.);
#195=EDGE_CURVE('',#95,#96,#72,.T.);
#219=CIRCLE('',#218,1.25E1);
#224=CIRCLE('',#223,1.25E1);
#237=CIRCLE('',#236,1.25E1);
#242=CIRCLE('',#241,4.55E1);
#247=CIRCLE('',#246,1.25E1);
#252=CIRCLE('',#251,2.05E1);
#257=CIRCLE('',#256,1.25E1);
#266=CIRCLE('',#265,1.25E1);
#275=CIRCLE('',#274,1.25E1);
#280=CIRCLE('',#279,1.25E1);
#302=EDGE_CURVE('',#283,#284,#219,.T.);
#304=EDGE_CURVE('',#284,#283,#224,.T.);
#315=EDGE_CURVE('',#283,#287,#228,.T.);
#317=EDGE_CURVE('',#287,#288,#247,.T.);
#319=EDGE_CURVE('',#284,#288,#232,.T.);
#331=EDGE_CURVE('',#288,#287,#237,.T.);
#343=EDGE_CURVE('',#288,#292,#242,.T.);
#345=EDGE_CURVE('',#292,#291,#266,.T.);
#347=EDGE_CURVE('',#287,#291,#252,.T.);
#359=EDGE_CURVE('',#291,#292,#257,.T.);
#371=EDGE_CURVE('',#291,#295,#261,.T.);
#373=EDGE_CURVE('',#295,#296,#275,.T.);
#375=EDGE_CURVE('',#292,#296,#270,.T.);
#387=EDGE_CURVE('',#296,#295,#280,.T.);
#406=(LENGTH_UNIT()NAMED_UNIT(*)SI_UNIT(.MILLI.,.METRE.));
#410=(NAMED_UNIT(*)PLANE_ANGLE_UNIT()SI_UNIT($,.RADIAN.));
#413=(NAMED_UNIT(*)SI_UNIT($,.STERADIAN.)SOLID_ANGLE_UNIT());
#416=ADVANCED_BREP_SHAPE_REPRESENTATION('',(#214,#404),#415);
#423=PRODUCT_DEFINITION('design','',#422,#419);
#424=PRODUCT_DEFINITION_SHAPE('','SHAPE FOR 433.',#423);
#425=SHAPE_DEFINITION_REPRESENTATION(#424,#416);
ENDSEC;
END-ISO-10303-21;
