ISO-10303-21;
HEADER;
FILE_DESCRIPTION((''),'2;1');
FILE_NAME('3-4','2018-07-29T',('MQ'),(''),
'PRO/ENGINEER BY PARAMETRIC TECHNOLOGY CORPORATION, 2012130',
'PRO/ENGINEER BY PARAMETRIC TECHNOLOGY CORPORATION, 2012130','');
FILE_SCHEMA(('CONFIG_CONTROL_DESIGN'));
ENDSEC;
DATA;
#1=CARTESIAN_POINT('',(0.E0,0.E0,0.E0));
#2=DIRECTION('',(1.E0,0.E0,0.E0));
#3=DIRECTION('',(0.E0,0.E0,-1.E0));
#4=AXIS2_PLACEMENT_3D('',#1,#2,#3);
#6=CARTESIAN_POINT('',(0.E0,0.E0,0.E0));
#7=DIRECTION('',(1.E0,0.E0,0.E0));
#8=DIRECTION('',(0.E0,0.E0,1.E0));
#9=AXIS2_PLACEMENT_3D('',#6,#7,#8);
#11=CARTESIAN_POINT('',(7.5E0,0.E0,0.E0));
#12=DIRECTION('',(1.E0,0.E0,0.E0));
#13=DIRECTION('',(0.E0,0.E0,-1.E0));
#14=AXIS2_PLACEMENT_3D('',#11,#12,#13);
#16=DIRECTION('',(1.E0,-4.348428423802E-11,0.E0));
#17=VECTOR('',#16,7.5E0);
#18=CARTESIAN_POINT('',(0.E0,0.E0,-4.E1));
#19=LINE('',#18,#17);
#20=CARTESIAN_POINT('',(7.5E0,-1.232347557334E-14,-3.95E1));
#21=DIRECTION('',(0.E0,1.E0,0.E0));
#22=DIRECTION('',(1.E0,0.E0,4.263256414561E-14));
#23=AXIS2_PLACEMENT_3D('',#20,#21,#22);
#25=CARTESIAN_POINT('',(8.E0,0.E0,0.E0));
#26=DIRECTION('',(-1.E0,0.E0,0.E0));
#27=DIRECTION('',(0.E0,-1.E0,0.E0));
#28=AXIS2_PLACEMENT_3D('',#25,#26,#27);
#30=CARTESIAN_POINT('',(8.E0,0.E0,0.E0));
#31=DIRECTION('',(-1.E0,0.E0,0.E0));
#32=DIRECTION('',(0.E0,1.E0,0.E0));
#33=AXIS2_PLACEMENT_3D('',#30,#31,#32);
#35=CARTESIAN_POINT('',(8.E0,0.E0,0.E0));
#36=DIRECTION('',(1.E0,0.E0,0.E0));
#37=DIRECTION('',(0.E0,0.E0,1.E0));
#38=AXIS2_PLACEMENT_3D('',#35,#36,#37);
#40=CARTESIAN_POINT('',(8.E0,0.E0,0.E0));
#41=DIRECTION('',(1.E0,0.E0,0.E0));
#42=DIRECTION('',(0.E0,0.E0,-1.E0));
#43=AXIS2_PLACEMENT_3D('',#40,#41,#42);
#45=CARTESIAN_POINT('',(1.65E2,0.E0,0.E0));
#46=DIRECTION('',(-1.E0,0.E0,0.E0));
#47=DIRECTION('',(0.E0,-1.E0,0.E0));
#48=AXIS2_PLACEMENT_3D('',#45,#46,#47);
#50=DIRECTION('',(-1.E0,0.E0,0.E0));
#51=VECTOR('',#50,1.57E2);
#52=CARTESIAN_POINT('',(1.65E2,-1.4E1,0.E0));
#53=LINE('',#52,#51);
#54=CARTESIAN_POINT('',(1.65E2,0.E0,0.E0));
#55=DIRECTION('',(-1.E0,0.E0,0.E0));
#56=DIRECTION('',(0.E0,1.E0,0.E0));
#57=AXIS2_PLACEMENT_3D('',#54,#55,#56);
#59=DIRECTION('',(-1.E0,0.E0,0.E0));
#60=VECTOR('',#59,1.57E2);
#61=CARTESIAN_POINT('',(1.65E2,1.4E1,0.E0));
#62=LINE('',#61,#60);
#63=CARTESIAN_POINT('',(2.E2,-3.5E1,0.E0));
#64=DIRECTION('',(0.E0,1.E0,0.E0));
#65=DIRECTION('',(1.E0,0.E0,0.E0));
#66=AXIS2_PLACEMENT_3D('',#63,#64,#65);
#68=CARTESIAN_POINT('',(1.65E2,-3.5E1,0.E0));
#69=DIRECTION('',(0.E0,0.E0,1.E0));
#70=DIRECTION('',(1.E0,0.E0,0.E0));
#71=AXIS2_PLACEMENT_3D('',#68,#69,#70);
#73=CARTESIAN_POINT('',(2.E2,-6.95E1,0.E0));
#74=DIRECTION('',(0.E0,-1.E0,0.E0));
#75=DIRECTION('',(-1.E0,0.E0,0.E0));
#76=AXIS2_PLACEMENT_3D('',#73,#74,#75);
#78=DIRECTION('',(0.E0,1.E0,2.039910752393E-10));
#79=VECTOR('',#78,3.45E1);
#80=CARTESIAN_POINT('',(2.14E2,-6.95E1,-7.037690794415E-9));
#81=LINE('',#80,#79);
#82=CARTESIAN_POINT('',(1.865E2,-6.95E1,0.E0));
#83=DIRECTION('',(0.E0,0.E0,-1.E0));
#84=DIRECTION('',(1.477928890381E-12,-1.E0,0.E0));
#85=AXIS2_PLACEMENT_3D('',#82,#83,#84);
#87=CARTESIAN_POINT('',(2.E2,-7.E1,0.E0));
#88=DIRECTION('',(0.E0,-1.E0,0.E0));
#89=DIRECTION('',(-1.E0,0.E0,0.E0));
#90=AXIS2_PLACEMENT_3D('',#87,#88,#89);
#92=CARTESIAN_POINT('',(2.E2,-7.E1,0.E0));
#93=DIRECTION('',(0.E0,-1.E0,0.E0));
#94=DIRECTION('',(1.E0,0.E0,0.E0));
#95=AXIS2_PLACEMENT_3D('',#92,#93,#94);
#97=CARTESIAN_POINT('',(2.135E2,-6.95E1,0.E0));
#98=DIRECTION('',(0.E0,0.E0,1.E0));
#99=DIRECTION('',(-1.534772309242E-12,-1.E0,0.E0));
#100=AXIS2_PLACEMENT_3D('',#97,#98,#99);
#102=CARTESIAN_POINT('',(2.E2,-6.95E1,0.E0));
#103=DIRECTION('',(0.E0,-1.E0,0.E0));
#104=DIRECTION('',(1.E0,0.E0,0.E0));
#105=AXIS2_PLACEMENT_3D('',#102,#103,#104);
#107=DIRECTION('',(0.E0,1.E0,-2.039910579883E-10));
#108=VECTOR('',#107,3.45E1);
#109=CARTESIAN_POINT('',(1.86E2,-6.95E1,7.037690643345E-9));
#110=LINE('',#109,#108);
#111=CARTESIAN_POINT('',(2.E2,-3.5E1,0.E0));
#112=DIRECTION('',(0.E0,1.E0,0.E0));
#113=DIRECTION('',(-1.E0,0.E0,0.E0));
#114=AXIS2_PLACEMENT_3D('',#111,#112,#113);
#116=CARTESIAN_POINT('',(1.65E2,-3.5E1,0.E0));
#117=DIRECTION('',(0.E0,0.E0,1.E0));
#118=DIRECTION('',(1.E0,0.E0,0.E0));
#119=AXIS2_PLACEMENT_3D('',#116,#117,#118);
#121=CARTESIAN_POINT('',(7.5E0,-1.282307593442E-14,3.95E1));
#122=DIRECTION('',(0.E0,-1.E0,0.E0));
#123=DIRECTION('',(1.E0,0.E0,-5.684341886081E-14));
#124=AXIS2_PLACEMENT_3D('',#121,#122,#123);
#126=CARTESIAN_POINT('',(7.5E0,0.E0,0.E0));
#127=DIRECTION('',(1.E0,0.E0,0.E0));
#128=DIRECTION('',(0.E0,0.E0,1.E0));
#129=AXIS2_PLACEMENT_3D('',#126,#127,#128);
#131=DIRECTION('',(1.E0,4.348393776498E-11,0.E0));
#132=VECTOR('',#131,7.5E0);
#133=CARTESIAN_POINT('',(0.E0,0.E0,4.E1));
#134=LINE('',#133,#132);
#135=CARTESIAN_POINT('',(0.E0,0.E0,-4.E1));
#136=CARTESIAN_POINT('',(0.E0,0.E0,4.E1));
#137=VERTEX_POINT('',#135);
#138=VERTEX_POINT('',#136);
#139=CARTESIAN_POINT('',(1.86E2,-3.5E1,0.E0));
#140=CARTESIAN_POINT('',(2.14E2,-3.5E1,0.E0));
#141=VERTEX_POINT('',#139);
#142=VERTEX_POINT('',#140);
#143=CARTESIAN_POINT('',(1.65E2,-1.4E1,0.E0));
#144=CARTESIAN_POINT('',(1.65E2,1.4E1,0.E0));
#145=VERTEX_POINT('',#143);
#146=VERTEX_POINT('',#144);
#147=CARTESIAN_POINT('',(8.E0,-1.4E1,0.E0));
#148=CARTESIAN_POINT('',(8.E0,1.4E1,0.E0));
#149=VERTEX_POINT('',#147);
#150=VERTEX_POINT('',#148);
#151=CARTESIAN_POINT('',(8.E0,0.E0,3.95E1));
#152=CARTESIAN_POINT('',(8.E0,0.E0,-3.95E1));
#153=VERTEX_POINT('',#151);
#154=VERTEX_POINT('',#152);
#155=CARTESIAN_POINT('',(7.5E0,0.E0,4.E1));
#156=CARTESIAN_POINT('',(7.5E0,0.E0,-4.E1));
#157=VERTEX_POINT('',#155);
#158=VERTEX_POINT('',#156);
#159=CARTESIAN_POINT('',(1.865E2,-7.E1,9.366024590009E-14));
#160=CARTESIAN_POINT('',(2.135E2,-7.E1,-7.133270174703E-14));
#161=VERTEX_POINT('',#159);
#162=VERTEX_POINT('',#160);
#163=CARTESIAN_POINT('',(1.86E2,-6.95E1,0.E0));
#164=CARTESIAN_POINT('',(2.14E2,-6.95E1,0.E0));
#165=VERTEX_POINT('',#163);
#166=VERTEX_POINT('',#164);
#167=CARTESIAN_POINT('',(0.E0,0.E0,0.E0));
#168=DIRECTION('',(1.E0,0.E0,0.E0));
#169=DIRECTION('',(0.E0,0.E0,-1.E0));
#170=AXIS2_PLACEMENT_3D('',#167,#168,#169);
#171=PLANE('',#170);
#173=ORIENTED_EDGE('',*,*,#172,.T.);
#175=ORIENTED_EDGE('',*,*,#174,.T.);
#176=EDGE_LOOP('',(#173,#175));
#177=FACE_OUTER_BOUND('',#176,.F.);
#178=ADVANCED_FACE('',(#177),#171,.F.);
#179=CARTESIAN_POINT('',(0.E0,0.E0,0.E0));
#180=DIRECTION('',(1.E0,0.E0,0.E0));
#181=DIRECTION('',(0.E0,0.E0,-1.E0));
#182=AXIS2_PLACEMENT_3D('',#179,#180,#181);
#183=CYLINDRICAL_SURFACE('',#182,4.E1);
#185=ORIENTED_EDGE('',*,*,#184,.T.);
#187=ORIENTED_EDGE('',*,*,#186,.F.);
#188=ORIENTED_EDGE('',*,*,#172,.F.);
#190=ORIENTED_EDGE('',*,*,#189,.T.);
#191=EDGE_LOOP('',(#185,#187,#188,#190));
#192=FACE_OUTER_BOUND('',#191,.F.);
#193=ADVANCED_FACE('',(#192),#183,.T.);
#194=CARTESIAN_POINT('',(7.5E0,0.E0,0.E0));
#195=DIRECTION('',(1.E0,0.E0,0.E0));
#196=DIRECTION('',(0.E0,-9.747061425215E-3,-9.999524962685E-1));
#197=AXIS2_PLACEMENT_3D('',#194,#195,#196);
#198=TOROIDAL_SURFACE('',#197,3.95E1,5.E-1);
#200=ORIENTED_EDGE('',*,*,#199,.T.);
#202=ORIENTED_EDGE('',*,*,#201,.T.);
#203=ORIENTED_EDGE('',*,*,#184,.F.);
#205=ORIENTED_EDGE('',*,*,#204,.F.);
#206=EDGE_LOOP('',(#200,#202,#203,#205));
#207=FACE_OUTER_BOUND('',#206,.F.);
#208=ADVANCED_FACE('',(#207),#198,.T.);
#209=CARTESIAN_POINT('',(8.E0,0.E0,0.E0));
#210=DIRECTION('',(1.E0,0.E0,0.E0));
#211=DIRECTION('',(0.E0,0.E0,-1.E0));
#212=AXIS2_PLACEMENT_3D('',#209,#210,#211);
#213=PLANE('',#212);
#215=ORIENTED_EDGE('',*,*,#214,.F.);
#216=ORIENTED_EDGE('',*,*,#199,.F.);
#217=EDGE_LOOP('',(#215,#216));
#218=FACE_OUTER_BOUND('',#217,.F.);
#220=ORIENTED_EDGE('',*,*,#219,.F.);
#222=ORIENTED_EDGE('',*,*,#221,.F.);
#223=EDGE_LOOP('',(#220,#222));
#224=FACE_BOUND('',#223,.F.);
#225=ADVANCED_FACE('',(#218,#224),#213,.T.);
#226=CARTESIAN_POINT('',(1.65E2,0.E0,0.E0));
#227=DIRECTION('',(-1.E0,0.E0,0.E0));
#228=DIRECTION('',(0.E0,-1.E0,0.E0));
#229=AXIS2_PLACEMENT_3D('',#226,#227,#228);
#230=CYLINDRICAL_SURFACE('',#229,1.4E1);
#231=ORIENTED_EDGE('',*,*,#219,.T.);
#233=ORIENTED_EDGE('',*,*,#232,.F.);
#235=ORIENTED_EDGE('',*,*,#234,.F.);
#237=ORIENTED_EDGE('',*,*,#236,.T.);
#238=EDGE_LOOP('',(#231,#233,#235,#237));
#239=FACE_OUTER_BOUND('',#238,.F.);
#240=ADVANCED_FACE('',(#239),#230,.T.);
#241=CARTESIAN_POINT('',(1.65E2,0.E0,0.E0));
#242=DIRECTION('',(-1.E0,0.E0,0.E0));
#243=DIRECTION('',(0.E0,-1.E0,0.E0));
#244=AXIS2_PLACEMENT_3D('',#241,#242,#243);
#245=CYLINDRICAL_SURFACE('',#244,1.4E1);
#246=ORIENTED_EDGE('',*,*,#221,.T.);
#247=ORIENTED_EDGE('',*,*,#236,.F.);
#249=ORIENTED_EDGE('',*,*,#248,.F.);
#250=ORIENTED_EDGE('',*,*,#232,.T.);
#251=EDGE_LOOP('',(#246,#247,#249,#250));
#252=FACE_OUTER_BOUND('',#251,.F.);
#253=ADVANCED_FACE('',(#252),#245,.T.);
#254=CARTESIAN_POINT('',(1.65E2,-3.5E1,0.E0));
#255=DIRECTION('',(0.E0,0.E0,1.E0));
#256=DIRECTION('',(-1.E0,0.E0,0.E0));
#257=AXIS2_PLACEMENT_3D('',#254,#255,#256);
#258=TOROIDAL_SURFACE('',#257,3.5E1,1.4E1);
#260=ORIENTED_EDGE('',*,*,#259,.F.);
#262=ORIENTED_EDGE('',*,*,#261,.T.);
#263=ORIENTED_EDGE('',*,*,#248,.T.);
#265=ORIENTED_EDGE('',*,*,#264,.F.);
#266=EDGE_LOOP('',(#260,#262,#263,#265));
#267=FACE_OUTER_BOUND('',#266,.F.);
#268=ADVANCED_FACE('',(#267),#258,.T.);
#269=CARTESIAN_POINT('',(2.E2,-7.E1,0.E0));
#270=DIRECTION('',(0.E0,1.E0,0.E0));
#271=DIRECTION('',(-1.E0,0.E0,0.E0));
#272=AXIS2_PLACEMENT_3D('',#269,#270,#271);
#273=CYLINDRICAL_SURFACE('',#272,1.4E1);
#275=ORIENTED_EDGE('',*,*,#274,.T.);
#277=ORIENTED_EDGE('',*,*,#276,.T.);
#278=ORIENTED_EDGE('',*,*,#259,.T.);
#280=ORIENTED_EDGE('',*,*,#279,.F.);
#281=EDGE_LOOP('',(#275,#277,#278,#280));
#282=FACE_OUTER_BOUND('',#281,.F.);
#283=ADVANCED_FACE('',(#282),#273,.T.);
#284=CARTESIAN_POINT('',(2.E2,-6.95E1,0.E0));
#285=DIRECTION('',(0.E0,1.E0,0.E0));
#286=DIRECTION('',(-9.992175529981E-1,0.E0,3.955100226840E-2));
#287=AXIS2_PLACEMENT_3D('',#284,#285,#286);
#288=TOROIDAL_SURFACE('',#287,1.35E1,5.E-1);
#290=ORIENTED_EDGE('',*,*,#289,.T.);
#292=ORIENTED_EDGE('',*,*,#291,.T.);
#293=ORIENTED_EDGE('',*,*,#274,.F.);
#295=ORIENTED_EDGE('',*,*,#294,.F.);
#296=EDGE_LOOP('',(#290,#292,#293,#295));
#297=FACE_OUTER_BOUND('',#296,.F.);
#298=ADVANCED_FACE('',(#297),#288,.T.);
#299=CARTESIAN_POINT('',(2.E2,-7.E1,0.E0));
#300=DIRECTION('',(0.E0,1.E0,0.E0));
#301=DIRECTION('',(-1.E0,0.E0,0.E0));
#302=AXIS2_PLACEMENT_3D('',#299,#300,#301);
#303=PLANE('',#302);
#304=ORIENTED_EDGE('',*,*,#289,.F.);
#306=ORIENTED_EDGE('',*,*,#305,.F.);
#307=EDGE_LOOP('',(#304,#306));
#308=FACE_OUTER_BOUND('',#307,.F.);
#309=ADVANCED_FACE('',(#308),#303,.F.);
#310=CARTESIAN_POINT('',(2.E2,-6.95E1,0.E0));
#311=DIRECTION('',(0.E0,1.E0,0.E0));
#312=DIRECTION('',(9.992175529981E-1,0.E0,-3.955100226840E-2));
#313=AXIS2_PLACEMENT_3D('',#310,#311,#312);
#314=TOROIDAL_SURFACE('',#313,1.35E1,5.E-1);
#315=ORIENTED_EDGE('',*,*,#305,.T.);
#316=ORIENTED_EDGE('',*,*,#294,.T.);
#318=ORIENTED_EDGE('',*,*,#317,.F.);
#319=ORIENTED_EDGE('',*,*,#291,.F.);
#320=EDGE_LOOP('',(#315,#316,#318,#319));
#321=FACE_OUTER_BOUND('',#320,.F.);
#322=ADVANCED_FACE('',(#321),#314,.T.);
#323=CARTESIAN_POINT('',(2.E2,-7.E1,0.E0));
#324=DIRECTION('',(0.E0,1.E0,0.E0));
#325=DIRECTION('',(-1.E0,0.E0,0.E0));
#326=AXIS2_PLACEMENT_3D('',#323,#324,#325);
#327=CYLINDRICAL_SURFACE('',#326,1.4E1);
#328=ORIENTED_EDGE('',*,*,#317,.T.);
#329=ORIENTED_EDGE('',*,*,#279,.T.);
#331=ORIENTED_EDGE('',*,*,#330,.T.);
#332=ORIENTED_EDGE('',*,*,#276,.F.);
#333=EDGE_LOOP('',(#328,#329,#331,#332));
#334=FACE_OUTER_BOUND('',#333,.F.);
#335=ADVANCED_FACE('',(#334),#327,.T.);
#336=CARTESIAN_POINT('',(1.65E2,-3.5E1,0.E0));
#337=DIRECTION('',(0.E0,0.E0,1.E0));
#338=DIRECTION('',(-1.E0,0.E0,0.E0));
#339=AXIS2_PLACEMENT_3D('',#336,#337,#338);
#340=TOROIDAL_SURFACE('',#339,3.5E1,1.4E1);
#341=ORIENTED_EDGE('',*,*,#330,.F.);
#342=ORIENTED_EDGE('',*,*,#264,.T.);
#343=ORIENTED_EDGE('',*,*,#234,.T.);
#344=ORIENTED_EDGE('',*,*,#261,.F.);
#345=EDGE_LOOP('',(#341,#342,#343,#344));
#346=FACE_OUTER_BOUND('',#345,.F.);
#347=ADVANCED_FACE('',(#346),#340,.T.);
#348=CARTESIAN_POINT('',(7.5E0,0.E0,0.E0));
#349=DIRECTION('',(1.E0,0.E0,0.E0));
#350=DIRECTION('',(0.E0,9.747061425216E-3,9.999524962685E-1));
#351=AXIS2_PLACEMENT_3D('',#348,#349,#350);
#352=TOROIDAL_SURFACE('',#351,3.95E1,5.E-1);
#353=ORIENTED_EDGE('',*,*,#214,.T.);
#354=ORIENTED_EDGE('',*,*,#204,.T.);
#356=ORIENTED_EDGE('',*,*,#355,.F.);
#357=ORIENTED_EDGE('',*,*,#201,.F.);
#358=EDGE_LOOP('',(#353,#354,#356,#357));
#359=FACE_OUTER_BOUND('',#358,.F.);
#360=ADVANCED_FACE('',(#359),#352,.T.);
#361=CARTESIAN_POINT('',(0.E0,0.E0,0.E0));
#362=DIRECTION('',(1.E0,0.E0,0.E0));
#363=DIRECTION('',(0.E0,0.E0,-1.E0));
#364=AXIS2_PLACEMENT_3D('',#361,#362,#363);
#365=CYLINDRICAL_SURFACE('',#364,4.E1);
#366=ORIENTED_EDGE('',*,*,#355,.T.);
#367=ORIENTED_EDGE('',*,*,#189,.F.);
#368=ORIENTED_EDGE('',*,*,#174,.F.);
#369=ORIENTED_EDGE('',*,*,#186,.T.);
#370=EDGE_LOOP('',(#366,#367,#368,#369));
#371=FACE_OUTER_BOUND('',#370,.F.);
#372=ADVANCED_FACE('',(#371),#365,.T.);
#373=CLOSED_SHELL('',(#178,#193,#208,#225,#240,#253,#268,#283,#298,#309,#322,
#335,#347,#360,#372));
#374=MANIFOLD_SOLID_BREP('',#373);
#375=DIMENSIONAL_EXPONENTS(1.E0,0.E0,0.E0,0.E0,0.E0,0.E0,0.E0);
#377=LENGTH_MEASURE_WITH_UNIT(LENGTH_MEASURE(2.54E1),#376);
#378=(CONVERSION_BASED_UNIT('INCH',#377)LENGTH_UNIT()NAMED_UNIT(#375));
#379=DIMENSIONAL_EXPONENTS(0.E0,0.E0,0.E0,0.E0,0.E0,0.E0,0.E0);
#381=PLANE_ANGLE_MEASURE_WITH_UNIT(PLANE_ANGLE_MEASURE(1.745329251994E-2),#380);
#382=(CONVERSION_BASED_UNIT('DEGREE',#381)NAMED_UNIT(*)PLANE_ANGLE_UNIT());
#384=UNCERTAINTY_MEASURE_WITH_UNIT(LENGTH_MEASURE(2.535564166470E-2),#378,
'closure',
'Maximum model space distance between geometric entities at asserted connectivities');
#385=(GEOMETRIC_REPRESENTATION_CONTEXT(3)GLOBAL_UNCERTAINTY_ASSIGNED_CONTEXT((
#384))GLOBAL_UNIT_ASSIGNED_CONTEXT((#378,#382,#383))REPRESENTATION_CONTEXT
('ID1','3'));
#387=APPLICATION_CONTEXT(
'CONFIGURATION CONTROLLED 3D DESIGNS OF MECHANICAL PARTS AND ASSEMBLIES');
#388=APPLICATION_PROTOCOL_DEFINITION('international standard',
'config_control_design',1994,#387);
#389=DESIGN_CONTEXT('',#387,'design');
#390=MECHANICAL_CONTEXT('',#387,'mechanical');
#391=PRODUCT('3-4','3-4','NOT SPECIFIED',(#390));
#392=PRODUCT_DEFINITION_FORMATION_WITH_SPECIFIED_SOURCE('1','LAST_VERSION',#391,
.MADE.);
#396=PRODUCT_CATEGORY('part','');
#397=PRODUCT_RELATED_PRODUCT_CATEGORY('detail','',(#391));
#398=PRODUCT_CATEGORY_RELATIONSHIP('','',#396,#397);
#399=SECURITY_CLASSIFICATION_LEVEL('unclassified');
#400=SECURITY_CLASSIFICATION('','',#399);
#401=CC_DESIGN_SECURITY_CLASSIFICATION(#400,(#392));
#402=APPROVAL_STATUS('approved');
#403=APPROVAL(#402,'');
#404=CC_DESIGN_APPROVAL(#403,(#400,#392,#393));
#405=CALENDAR_DATE(118,29,7);
#406=COORDINATED_UNIVERSAL_TIME_OFFSET(8,0,.AHEAD.);
#407=LOCAL_TIME(20,52,5.8E1,#406);
#408=DATE_AND_TIME(#405,#407);
#409=APPROVAL_DATE_TIME(#408,#403);
#410=DATE_TIME_ROLE('creation_date');
#411=CC_DESIGN_DATE_AND_TIME_ASSIGNMENT(#408,#410,(#393));
#412=DATE_TIME_ROLE('classification_date');
#413=CC_DESIGN_DATE_AND_TIME_ASSIGNMENT(#408,#412,(#400));
#414=PERSON('UNSPECIFIED','UNSPECIFIED',$,$,$,$);
#415=ORGANIZATION('UNSPECIFIED','UNSPECIFIED','UNSPECIFIED');
#416=PERSON_AND_ORGANIZATION(#414,#415);
#417=APPROVAL_ROLE('approver');
#418=APPROVAL_PERSON_ORGANIZATION(#416,#403,#417);
#419=PERSON_AND_ORGANIZATION_ROLE('creator');
#420=CC_DESIGN_PERSON_AND_ORGANIZATION_ASSIGNMENT(#416,#419,(#392,#393));
#421=PERSON_AND_ORGANIZATION_ROLE('design_supplier');
#422=CC_DESIGN_PERSON_AND_ORGANIZATION_ASSIGNMENT(#416,#421,(#392));
#423=PERSON_AND_ORGANIZATION_ROLE('classification_officer');
#424=CC_DESIGN_PERSON_AND_ORGANIZATION_ASSIGNMENT(#416,#423,(#400));
#425=PERSON_AND_ORGANIZATION_ROLE('design_owner');
#426=CC_DESIGN_PERSON_AND_ORGANIZATION_ASSIGNMENT(#416,#425,(#391));
#5=CIRCLE('',#4,4.E1);
#10=CIRCLE('',#9,4.E1);
#15=CIRCLE('',#14,4.E1);
#24=CIRCLE('',#23,5.E-1);
#29=CIRCLE('',#28,1.4E1);
#34=CIRCLE('',#33,1.4E1);
#39=CIRCLE('',#38,3.95E1);
#44=CIRCLE('',#43,3.95E1);
#49=CIRCLE('',#48,1.4E1);
#58=CIRCLE('',#57,1.4E1);
#67=CIRCLE('',#66,1.4E1);
#72=CIRCLE('',#71,4.9E1);
#77=CIRCLE('',#76,1.4E1);
#86=CIRCLE('',#85,5.E-1);
#91=CIRCLE('',#90,1.35E1);
#96=CIRCLE('',#95,1.35E1);
#101=CIRCLE('',#100,5.E-1);
#106=CIRCLE('',#105,1.4E1);
#115=CIRCLE('',#114,1.4E1);
#120=CIRCLE('',#119,2.1E1);
#125=CIRCLE('',#124,5.E-1);
#130=CIRCLE('',#129,4.E1);
#172=EDGE_CURVE('',#137,#138,#5,.T.);
#174=EDGE_CURVE('',#138,#137,#10,.T.);
#184=EDGE_CURVE('',#158,#157,#15,.T.);
#186=EDGE_CURVE('',#138,#157,#134,.T.);
#189=EDGE_CURVE('',#137,#158,#19,.T.);
#199=EDGE_CURVE('',#154,#153,#44,.T.);
#201=EDGE_CURVE('',#153,#157,#125,.T.);
#204=EDGE_CURVE('',#154,#158,#24,.T.);
#214=EDGE_CURVE('',#153,#154,#39,.T.);
#219=EDGE_CURVE('',#149,#150,#29,.T.);
#221=EDGE_CURVE('',#150,#149,#34,.T.);
#232=EDGE_CURVE('',#146,#150,#62,.T.);
#234=EDGE_CURVE('',#145,#146,#49,.T.);
#236=EDGE_CURVE('',#145,#149,#53,.T.);
#248=EDGE_CURVE('',#146,#145,#58,.T.);
#259=EDGE_CURVE('',#142,#141,#67,.T.);
#261=EDGE_CURVE('',#142,#146,#72,.T.);
#264=EDGE_CURVE('',#141,#145,#120,.T.);
#274=EDGE_CURVE('',#165,#166,#77,.T.);
#276=EDGE_CURVE('',#166,#142,#81,.T.);
#279=EDGE_CURVE('',#165,#141,#110,.T.);
#289=EDGE_CURVE('',#161,#162,#91,.T.);
#291=EDGE_CURVE('',#162,#166,#101,.T.);
#294=EDGE_CURVE('',#161,#165,#86,.T.);
#305=EDGE_CURVE('',#162,#161,#96,.T.);
#317=EDGE_CURVE('',#166,#165,#106,.T.);
#330=EDGE_CURVE('',#141,#142,#115,.T.);
#355=EDGE_CURVE('',#157,#158,#130,.T.);
#376=(LENGTH_UNIT()NAMED_UNIT(*)SI_UNIT(.MILLI.,.METRE.));
#380=(NAMED_UNIT(*)PLANE_ANGLE_UNIT()SI_UNIT($,.RADIAN.));
#383=(NAMED_UNIT(*)SI_UNIT($,.STERADIAN.)SOLID_ANGLE_UNIT());
#386=ADVANCED_BREP_SHAPE_REPRESENTATION('',(#374),#385);
#393=PRODUCT_DEFINITION('design','',#392,#389);
#394=PRODUCT_DEFINITION_SHAPE('','SHAPE FOR 3-4.',#393);
#395=SHAPE_DEFINITION_REPRESENTATION(#394,#386);
ENDSEC;
END-ISO-10303-21;
